Audiovent - The Energy Chords & Tabs

 

The Energy Chords & Tabs

Audiovent Chords & Tabs

Version: 1 Type: Bass Tab 0 ratings
1 star 2 stars 3 stars 4 stars 5 stars
comments

The Energy Bass Tab

Drop D tuning

Intro(x4)
G-----------------|-----------------|-----------------|-----------------|
D-2-2-2-2-2-2-2-2-|-2-2-2-2-2-2-2-2-|-----------------|-----------------|
A-----------------|-----------------|-3-3-3-3-3-3-3-3-|-3-3-3-3-3-3-3-3-|
D-----------------|-----------------|-----------------|-----------------|

Verse(x2)
G---------------|----------------
D---------------|----------------
A---------------|----------------
D-2--0-2-2--0-5-|-0-5-0-5-5-5-5--

G----------|---------------------|
D----------|---------------------|
A----------|---------------------|
D-0-0--0-7-|-0-7-0-10-10-10-10---|

Verse
G---------------|
D---------------|
A---------------|
D-2--0-2-2--0-7-|
[ Tab from: http://www.guitartabs.cc/tabs/a/audiovent/the_energy_btab.html ]
Pre-Chorus (Play Twice)
G--------|-------|-------|--------|
D--------|-------|-------|--------|
A--------|-------|-------|--------|
D-10-----|-7-----|-5-----|-3------|

Chorus
G---------------|----------------|---------------|----------------|
D---------------|----------------|---------------|----------------|
A---------------|----------------|---------------|----------------|
D-2--2-0-2--2-0-|-2--2-0-2-5-2-0-|-7--7-5-7--7-5-|-5--5-0-4-5-4-0-|

G---------------|----------------|-----------------|-----------------|
D---------------|----------------|-----------------|-----------------|
A---------------|----------------|-----------------|-----------------|
D-2--2-0-2--2-0-|-2--2-0-2-5-2-0-|-5-5-5-5-5-5-5-5-|-7-7-7-7-7-7-7-7-|

During solo-verse
Comments