Audiovent - Sweet Frustration Chords & Tabs

 

Sweet Frustration Chords & Tabs

Audiovent Chords & Tabs

Version: 1 Type: Tab 0 ratings
1 star 2 stars 3 stars 4 stars 5 stars
comments

Sweet Frustration Tab

   
Audiovent - Sweet Frustration
EMail: rogelioatc@hotmail.com

Tuning: Drop-D (E-B-G-D-A-D)

It's absolutely correct

Intro

e|---------------|---------------------0-------|
B|---------------|-----------------------0-----|
G|-------0-------|-------0---------7-------7---|
D|-----4---4-----|-----4---4-----4-----------4-|
A|---0-------0---|---0-------0-----------------|
D|-0-----------5-|-0-----------5---------------|


Verse [First Time]

e|---------------|-------------------0-|
B|---------------|-------------------0-|
G|-------0-------|-------0---------7---|
D|-----4---4-----|-----4---4-----4-----|
A|---0-------0---|---0-------0---------|
D|-0-----------5-|-0-----------5-------|

e|-----------------------------|-----------------------------|
B|-----------------------------|-----------------------------|
G|-------0-----7-7-7-7-7-7-7-7-|-------0-----7-7-7-7-7-7-7-7-|
D|-----4---4---7-7-7-7-7-7-7-7-|-----4---4---7-7-7-7-7-7-7-7-|
A|---0-------0-5-5-5-5-5-5-5-5-|---0-------0-5-5-5-5-5-5-5-5-|
D|-0-----------5-5-5-5-5-5-5-5-|-0-----------5-5-5-5-5-5-5-5-|


Chorus

e|-0-000-0-0-|-0-000-0-0-|-0-000-0-0-|-0-0-0-0-0-0-0-0-|
B|-0-000-0-0-|-0-000-0-0-|-0-000-0-0-|-0-0-0-0-0-0-0-0-|
G|-6-666-6-6-|-4-444-4-4-|-6-666-6-6-|-2-2-2-2-2-2-2-2-|
D|-7-777-7-7-|-5-555-5-5-|-7-777-7-7-|-3-3-3-3-3-3-3-3-|
A|-7-777-7-7-|-5-555-5-5-|-7-777-7-7-|-3-3-3-3-3-3-3-3-|
D|-7-777-7-7-|-5-555-5-5-|-7-777-7-7-|-3-3-3-3-3-3-3-3-|

e|-0-000-0-0-|-0-000-0-0-|-0-000-0-0-|-0-0-0-0-0-0-0-0-0|
B|-0-000-0-0-|-0-000-0-0-|-0-000-0-0-|-0-0-0-0-0-0-0-0-0|
G|-6-666-6-6-|-4-444-4-4-|-6-666-6-6-|-2-2-2-2-2-2-2-2-2|
D|-7-777-7-7-|-5-555-5-5-|-7-777-7-7-|-3-3-3-3-3-3-3-3-3|
A|-7-777-7-7-|-5-555-5-5-|-7-777-7-7-|-3-3-3-3-3-3-3-3-3|
D|-7-777-7-7-|-5-555-5-5-|-7-777-7-7-|-3-3-3-3-3-3-3-3-3|


Breakdown
[ Tab from: http://www.guitartabs.cc/tabs/a/audiovent/sweet_frustration_tab.html ]
e|-----------0-------0--------0--|
B|-----------0-------0--------0--|
G|-----------4-------14-------16-|
D|-0-0-------5-------16-------17-|
A|-0-0-------5-------12-------17-|
D|-0-0-------5-------12-------17-|


Verse [Second Time]

e|---------------|-------------------0---------|
B|---------------|---------------------0-------|
G|-------0-------|-------0---------7-----7-----|
D|-----4---4-----|-----4---4-----4---------4---|
A|---0-------0---|---0-------0---------------0-|
D|-0-----------5-|-0-----------5---------------|

e|-----------------------------|-----------------------------|
B|-----------------------------|-----------------------------|
G|-------0-----7-7-7-7-7-7-7-7-|-------0-----7-7-7-7-7-7-7-7-|
D|-----4---4---7-7-7-7-7-7-7-7-|-----4---4---7-7-7-7-7-7-7-7-|
A|---0-------0-5-5-5-5-5-5-5-5-|---0-------0-5-5-5-5-5-5-5-5-|
D|-0-----------5-5-5-5-5-5-5-5-|-0-----------5-5-5-5-5-5-5-5-|


Bridge [Not sure if this is correct]

e|-----------------------------------------------0---------|
B|-----------------------------------------------0---------|
G|-0-0-0-0-0-0-0-0-0-0-0-0-0-0-0-0-0-0-0-0-0-0-0-4---------|
D|-0-0-0-0-0-0-0-0-0-0-0-0-0-0-0-0-0-0-0-0-0-0-0-2---------|
A|-3-3-3-3-3-3-3-2-2-2-2-2-2-2-2-1-1-1-1-1-1-1-1-0---0-1-2-|
D|---------------------------------------------------------|

e|-------------------------------------------------------------|
B|-------------------------------------------------------------|
G|-0-0-0-0-0-0-0-0-0-0-0-0-0-0-0-0-0-0-0-0-0-0-0-5-5-5-5-------|
D|-0-0-0-0-0-0-0-0-0-0-0-0-0-0-0-0-0-0-0-0-0-0-0-3-3-3-3-------|
A|-3-3-3-3-3-3-3-2-2-2-2-2-2-2-2-1-1-1-1-1-1-1-1---------0-1-2-|
D|-------------------------------------------------------------|

e|-----------------------------------------------0-|
B|-----------------------------------------------0-|
G|-0-0-0-0-0-0-0-0-0-0-0-0-0-0-0-0-0-0-0-0-0-0-0-4-|
D|-0-0-0-0-0-0-0-0-0-0-0-0-0-0-0-0-0-0-0-0-0-0-0-2-|
A|-3-3-3-3-3-3-3-2-2-2-2-2-2-2-2-1-1-1-1-1-1-1-1-0-|
D|-------------------------------------------------|
Comments