Audiovent - Rain Chords & Tabs

 

Rain Chords & Tabs

Audiovent Chords & Tabs

Version: 2 Type: Bass Tab

Rain Bass Tab

   
audiovent - rain
por doky 2004

5 stringed bass
G D A E B


intro

|-------|
|-------|
|-------|
|-22\10-|
|-------|

verso

|-------------------------------------------------------|
|-------------------------------------------------------|
|-------------------------------------------------------|
|-10101010----8888--------------------------------------|
|---------------------3/8888----11111111----13131313\10-|

verso 2

|---------------------------------------------|
|---------------------------------------------|
|---------------------------------------------|
|-10101010----8888----------------------------|
|---------------------5/11111111----10101010/-|

pre coro

|--------------------------------------|
|--------------------------------------|
|---5-5-5-5-5-1-3-5-5-5-5-5-5-11113333-|
|--------------------------------------|
|-33-3-3-3-3-3-3-3-3-3-3-3-3-3---------|

coro

|---------------|--------------|--------------------------------------|
|---------------|--------------|--------------------------------------|
|--5--5-5-3---3-|-5--5-5-3---3-|--------------------------------------|
|---------------|--------------|-3/6666-6/8888-8/11111111-11/13131313-|
|-3-33-3-3------|3-33-3-3------|--------------------------------------|

verso 3
[ Tab from: http://www.guitartabs.cc/tabs/a/audiovent/rain_btab_ver_2.html ]
|-------------------------------------|
|-------------------------------------|
|-------------------------------------|
|-10----8-----------------------------|
|------------3/8----11----13----15\10-|

solo

|-----------------------|
|-----------------------|
|-----------------------|
|-----------------------|
|-3----------3----------|

|-------------------------------------------------------|
|-------------------------------------------------------|
|-------------------------------------------------------|
|-101010-101010-101010888-888-888777-777-777666-666-666-|
|-------------------------------------------------------|

|-----------------------------------------
|-----------------------------------------
|-----------------------888-888-888101010-
|-6/101010-101010-101010------------------
|-----------------------------------------

-----------------------------------|
-----------------------------------|
101010-101010131313-13131315151515-|
-----------------------------------|
-----------------------------------|

outro

|----------------------------|
|----------------------------|
|----------------------------|
|----------------------------|
|-33---33---33----3/666-6/88-|

|------------------------|
|------------------------|
|------------------------|
|------------------------|
|-33---33---33----666663-|


gracias a mi amiga party Andrea Rodriguez... party ers...

doky 2004