Audiovent - I Cant Breathe Chords & Tabs

 

I Cant Breathe Chords & Tabs

Audiovent Chords & Tabs

Version: 1 Type: Bass Tab

I Cant Breathe Bass Tab

   
audiovent - I canīt breathe

bass tab

by: doky
taquilleros_de_sudamerica_maroyu_el_grupo_tropical_del_momento@hotmail.com

5-stringed bass
G D A E B


intro

|--------------|
|--------------|
|-333-333-33---|
|--------------|
|----1---1--1--| x4

verso

|---------|-------------|
|---------|-------------|
|---------|-------------|
|---------|-------------|
|-5353535-|-535353-3/17-|
        x3            x1             

pre-coro

|---------------|------------|
|---------------|------------|
|---------------|------------|
|---------------|---3--------|
|-535353-3/17\0-|-55-5-55553-|
	      x3           x1

coro

|-------------|------------------------------------|
|-------------|------------------------------------|
|-333-333-33--|---35---------1--1-11/66--3--6--3---|
|-------------|------------------------------------|
|----1---1--1-|-33---1--1-11-----------44-44-44-44-|
            x2 					 x1
[ Tab from: http://www.guitartabs.cc/tabs/a/audiovent/i_cant_breathe_btab.html ]
|--------------------:--------------|
|--------------------:--------------|
|---35--------1--1-11:--------------|
|--------------------:--------------|
|-33---1--1-11-------:3333333333333-|

middle

|------|-------|----|----------|------|-----------|---------|
|------|-------|----|-53-3-----|------|-----------|---------|
|-5----|--5----|--5-|---5-53-5-|-5----|--5--------|------5--|
|--5-3-|---5-3-|-3--|-------5--|--5-3-|---5-3-457-|-5--57-7-|
|------|-3-----|----|----------|------|-3---------|---------|

|------|--7----|---77-|----------|
|--7-4-|---7-4-|-5----|-53-3-----|
|-5----|-5-----|------|---5-5303-|
|------|-------|------|----------|
|------|-------|------|----------|

|------|------|--------------------|----2---|
|--7-4-|--7-4-|-44444444-----------|-2/4-4--|
|-5----|-5----|---------2420000000-|------0-|
|------|------|--------------------|--------|
|------|------|--------------------|--------|

Esta cancion es no mas facil aunque el middle creo que es un solo de bajo, tal vez
algunas notas esten mal o falten notas, yo toco como puedo che.
mando saludos a los grupos Maroyu e Iberia por hacer musica hiper bueena.

doky 2006