Audiovent - Energy Chords & Tabs

 

Energy Chords & Tabs

Audiovent Chords & Tabs

Version: 4 Type: Tab 0 ratings
1 star 2 stars 3 stars 4 stars 5 stars
comments

Energy Tab

   
The Energy by Audiovent
transcribed by Wade Johnson (w_j23@hotmail.com)

*Drop D tuning

Intro x4: w/wah
e|----------------------------------------------------|
B|----------------------------------------------------|
G|-11-12-11------11-12------12-11------11-12------12--|
D|----------12---------14---------12-----------10-----|
A|----------------------------------------------------|
D|----------------------------------------------------|
*bend note 1/2 step 4th time through

Verse 1:
e|--------------------------------------------------|
B|--------------------------------------------------|
G|----------------------------------2--2--2-5-5-5-5-|
D|-2--2-2--5--5--5-5-5-5-5--0--0-0--2--2--2-5-5-5-5-|
A|-2--2-2--5--5--5-5-5-5-5--0--0-0--0--0--0-3-3-3-3-|
D|-2--2-2--5--5--5-5-5-5-5--0--0-0------------------|

e|---------------------------------------------------|
B|-------------------------------------5-5-5-5-5-5b6-|
G|----------------------------------2----------------|
D|-2--2-2--0--0--0-0-0-0-0--5--5-5--2----------------|
A|-2--2-2--0--0--0-0-0-0-0--5--5-5--0----------------|
D|-2--2-2--0--0--0-0-0-0-0--5--5-5-------------------|

    Replace    the last measure   -------0-------0------|
    with this on 2nd time       ---------0-------0------|
                   -2--2------2-------2-----------------|
                   -2--2--------2-----------------------|
                   -0--0--------------------------------|
                   -------------------------------------|

(clean) - "Now that you're leavin'..."
e|-0----0----0----0----0----0----0------|
B|-0----0----0----0----0----0----0----4-|
G|-4----2----4----2----4----2----4----4-|
D|-4----2----4----2----4----2----4----4-|
A|-2----0----2----3----2----0----2----2-|
D|--------------------------------------|


Chorus - "We are the energy..."
e|------------------------------------------------|
B|------------------------------------------------|
G|------------------------------------------------|
D|-2--0-2--0-2--0-2-5-2-0--7--0-7--0-5--0-4-5-4-0-|
A|-2--0-2--0-2--0-2-5-2-0--7--0-7--0-5--0-4-5-4-0-|
D|-2--0-2--0-2--0-2-5-2-0--7--0-7--0-5--0-4-5-4-0-|

e|---------------------------------------------------------|
B|---------------------------------------------------------|
G|---------------------------------------------------------|
D|-2--0-2--0-2--0-2-5-2-0--5-5-5-5-5-5-5-5-7-7-7-7-7-7-7-7-|
A|-2--0-2--0-2--0-2-5-2-0--5-5-5-5-5-5-5-5-7-7-7-7-7-7-7-7-|
D|-2--0-2--0-2--0-2-5-2-0--5-5-5-5-5-5-5-5-7-7-7-7-7-7-7-7-|

Verse 2:					volume swell<<<
e|----------------------------------------------------------|
B|------------------------------------------------------5-5-|
G|------------------------------------------------------5-5-|
D|-2-2-2-2-2-2-2-2-5-5-5-5-5-5-5-5-0-0-0-0-0-0-0-0------3-3-|
A|-2-2-2-2-2-2-2-2-5-5-5-5-5-5-5-5-0-0-0-0-0-0-0-0----------|
D|-2-2-2-2-2-2-2-2-5-5-5-5-5-5-5-5-0-0-0-0-0-0-0-0----------|
   P.M............................................
[ Tab from: http://www.guitartabs.cc/tabs/a/audiovent/energy_tab_ver_4.html ]
e|------------------------------------------------------|
B|------------------------------------------------------|
G|------------------------------------------------------|
D|-2--2-2--0--0--0-0-0-0-0--5-7--5-7--5-7--5-7--7-5-4-0-|
A|-2--2-2--0--0--0-0-0-0-0--5-7--5-7--5-7--5-7--7-5-4-0-|
D|-2--2-2--0--0--0-0-0-0-0--5-7--5-7--5-7--5-7--7-5-4-0-|

e|--------------------------------------------------|
B|--------------------------------------------------|
G|----------------------------------2--2--2-5-5-5-5-|
D|-2--2-2--5--5--5-5-5-5-5--0--0-0--2--2--2-5-5-5-5-|
A|-2--2-2--5--5--5-5-5-5-5--0--0-0--0--0--0-3-3-3-3-|
D|-2--2-2--5--5--5-5-5-5-5--0--0-0------------------|

e|-----------------------------------------0------0-----|
B|-------------------------------------------0------0---|
G|----------------------------------2----------2------2-|
D|-2--2-2--0--0--0-0-0-0-0--5--5-5--2----2-------2------|
A|-2--2-2--0--0--0-0-0-0-0--5--5-5--0--0----------------|
D|-2--2-2--0--0--0-0-0-0-0--5--5-5----------------------|

"Now that you're leavin'..."    vol. swell<<<
e|-0----0----0----0----0----0----0---------|
B|-0----0----0----0----0----0----0----4----|
G|-4----2----4----2----4----2----4----4----|
D|-4----2----4----2----4----2----4----4----|
A|-2----0----2----3----2----0----2----2----|
D|-----------------------------------------|

Chorus x2

Solo - w/wah

e|------------------------------------------------------------------------------|
B|----------------------------------------------------------------------*10b12r-|
G|-9-7-----------9--------------------7-9---7-9--9-7-----------9----------------|
D|-----7b8r7-5-7---7b8r7-5-7-9~~--9-9-----9----------7b8r7-5-7---7b8r7-5--------|
A|------------------------------------------------------------------------------|
D|------------------------------------------------------------------------------|
				*gradual bend/pick repeatedly when releasing bend

e|----------------------------------------------------------------------------------|
B|----------------------------------------------------------------------------------|
G|-9-7-----------9------------------7-9b11r9p7--9b11r9~/--9-7-----------9-----------|
D|-----7b8r7-5-7---7b8r7-5-7-9~~--9---------------------------7b8r7-5-7---7b8r7-5-7-|
A|----------------------------------------------------------------------------------|
D|----------------------------------------------------------------------------------|

e|--------------------------------------|
B|-12-12-12-10-12-10-12-10-12-10-12-12/-|
G|-9--9--9--7--9--7--9--7--9--7--9--9-/-|
D|--------------------------------------|
A|--------------------------------------|
D|--------------------------------------|

Chorus x2

Then finish with this (x2):
e|------------------------------------|
B|------------------------------------|
G|------------------------------------|
D|-5-5-5-5-5-5-5-5-7-7-7-7-7-7-7-7-2*-|
A|-5-5-5-5-5-5-5-5-7-7-7-7-7-7-7-7-2*-|
D|-5-5-5-5-5-5-5-5-7-7-7-7-7-7-7-7-2*-|
*play only on 2nd time
Comments