Audiovent - Energy Chords & Tabs

 

Energy Chords & Tabs

Audiovent Chords & Tabs

Version: 1 Type: Tab 0 ratings
1 star 2 stars 3 stars 4 stars 5 stars
comments

Energy Tab

Song: Energy
Artist: Audiovent
Tuning: Drop D (EBGDAD)
Tabber: Rob Marston (rob@leftatom.com)
Notes: Song rules, great singer. 



Intro:

E-|--------------------|----------------------|
B-|-----8-7---7-8------|-----8-7---7-8----8---|
G-|---9-----7-----9----|---9-----7------------| Play four times.
D-|--------------------|---------------10-----|
A-|--------------------|----------------------|
E-|--------------------|----------------------|


Verse:
[ Tab from: http://www.guitartabs.cc/tabs/a/audiovent/energy_tab.html ]
E-|----------------------|-----------------------|
B-|----------------------|-----------------------|
G-|----------------------|-----------------------|
D-|----2---X---2-2---X---|---5-X-5-X-X---5-5-5---|
A-|----2---X---2-2---X---|---5-X-5-X-X---5-5-5---|
E-|----2---X---2-2---X---|---5-X-5-X-X---5-5-5---|

E-|---------------------|--------------------------|
B-|---------------------|--------------------------| Play again, but end with:
G-|---------------------|--------------------------|
D-|---0---X---0-0---X---|---7-X-7-X-X---10-10-10---|
A-|---0---X---0-0---X---|---7-X-7-X-X---10-10-10---|
E-|---0---X---0-0---X---|---7-X-7-X-X---10-10-10---|

|-------------------|
|-----9-9-9-9-9-9---| 
Comments