Audiovent - Beautiful Addiction Chords & Tabs

 

Beautiful Addiction Chords & Tabs

Audiovent Chords & Tabs

Version: 1 Type: Bass Tab 0 ratings
1 star 2 stars 3 stars 4 stars 5 stars
comments

Beautiful Addiction Bass Tab

Band - Audiovent
Song Title - Beautiful Addiction
Drop D tunning, Tabbed by Nathan Keir (correction of some other tab that
i can't find where it is 2 give them most of the credit).


Riff 1
G------------------------------------------------------------------
D------------------------------------------------------------------
A---2--2-2-2---------------2--2-2-2--------------------------------
D-------------5--5-5--0-2------------5--5-5--7-7-------------------

G------------------------------------------------------------------
D------------------------------------------------------------------
A---2--2-2-2---------------2--2-2-2--------------------------------
D-------------5--5-5--0-2------------5-----------------------------

Riff 2
G-------------------------------------------------------------------
D------2----12-11-9-\--5-----5/-12--14------------------------------
A--0----------------------5-----------------------------------------
D-------------------------------------------------------------------

G-------------------------------------------------------------------
D------2----12-11-9-\--5-----5/-12--14-/-(19)-----------------------
A--0----------------------5-----------------------------------------
D-------------------------------------------------------------------


Riff 3 (x2)
G-------------------------------------------------------------------
D-------------------------------------------------------------------
A--x-2-2-0-2---0-2-2-0-2--------------------------------------------
D---------------------------x-5-5-4-5---5-4-4-5-7-------------------

Riff 1
[ Tab from: http://www.guitartabs.cc/tabs/a/audiovent/beautiful_addiction_btab.html ]
G-------------------------------------------------------------------
D------2----12-11-9-\--5-----5/-12--14------------------------------
A--0----------------------5-----------------------------------------
D-------------------------------------------------------------------

G-------------------------------------------------------------------
D------2----12-11-9-\--5-----5/-12--14------------------------------
A--0----------------------5-----------------------------------------
D-------------------------------------------------------------------

G-------------------------------------------------------------------
D------2----12-11-9-\--5-----5/-12--14-/-(19)-----------------------
A--0----------------------5-----------------------------------------
D-------------------------------------------------------------------

Riff 3 (x2)
Riff 1

G--------------------------------------------------------------------
D--------------------------------------------------------------------
A--2-22222222225533--------------------------------------------------
D-------------------33333333-5555555-0000000000005533----------------

G--------------------------------------------------------------------
D--------------------------------------------------------------------
A--------------------------------------------------------------------
D-33333333-5555555-0000000000005533--33333333-5555555--00-00-00-00-5533

G--------------------------------------------------------------------
D--------------------------------------------------------------------
A--------------------------------------------------------------------
D-33333333-5555555-0000000000005533--33333333-5555555-

G--------------------------------------------------------------------
D--------------------------------------------------------------------
A--------------------------------------------------------------------
D-0000000035535535---------------------------------------------------

Riff 1 (x3) - slide down from 5/12\ and back after playing riff 1 once.
Then play riff 1 another 2 times.
www.nathkeir.vze.com
Comments