Audioslave - Your Time Has Come Chords & Tabs

 

Your Time Has Come Chords & Tabs

Audioslave Chords & Tabs

Version: 7 Type: Tab

Your Time Has Come Tab

BAND: AUDIOSLAVE(GREATEST)
SONG:YOUR TIME HAS COME
GUITARIST: TOM MORELLO(GOD,and i met him:) 
TABBER: JESSE
EMAIL: HOW_MANY_IRAQIS_PER_GALLON@HOTMAIL.COM

***i tabed this from 2 different live versions***


Live version:basically the same as on record

*****READ BELOW******

O.K in this solo the killswitch is used differently 
then how Tom usually uses it. The guitar has 2
pickups, usually tom turns one to 10 and the other
to zero creating a killswitch but in this one he uses
them both at 10 therefore when he switchs from 
pickup to pickup it creates another extra noise, 
something like a hummingbird noise. He has delay 
and he may have his whammy pedal turned on 1
octave higher like the intro but i have a whammy
and just delay and the killswitch sounds fine.


e|----------------------|    
b|----------------------|    
g|-------21----------21-|    
d|-------------21-------|    
a|--19------19----19----|    
E|----------------------|x8  

e|-----------------------------------------------------|
b|-------------12-----------------------14-------------|
g|-------12----------12-----------14----------14-------|
d|-----------------------------------------------------|
a|--10------10----10----10---12------12----12----12----|
E|-----------------------------------------------------|

[ Tab from: http://www.guitartabs.cc/tabs/a/audioslave/your_time_has_come_tab_ver_7.html ]
e|-----------------------------------------------------|
b|-------------16-----------------------12-------------|
g|-------16----------16-----------12----------12-------|
d|-----------------------------------------------------|
a|--14------14----14----14---10------10----10----10----|
E|-----------------------------------------------------|

e|-----------------------------------------------------|
b|-------------14-------------------------17-----------|
g|------14-----------14-----------17------------17-----|
d|-----------------------------------------------------|
a|--12-----12----12------12---15------15----15------15-|
E|-----------------------------------------------------|

e|-----------------------------------------------------|
b|-------------19--------------------------------------|
g|------19-----------19--------------------------------|
d|-----------------------------------------------------|
a|--17-----17----17------17----------------------------|
E|-----------------------------------------------------|

e|-----------------------------------------------------|
b|-------------19--------------------------------------|
g|------19-----------19-19-19-19~----------------------|
d|-----------------------------------------------------|
a|--17-----17----17------------------------------------|
E|-----------------------------------------------------|

add my msn if you feel like it lol.