Audioslave - Your Time Has Come Chords & Tabs

 

Your Time Has Come Chords & Tabs

Audioslave Chords & Tabs

Version: 3 Type: Tab 0 ratings
1 star 2 stars 3 stars 4 stars 5 stars
comments

Your Time Has Come Tab

   
-------------------------------------------------------------------------------
                 Your Time Has Come - Audioslave
-------------------------------------------------------------------------------
Tabbed by: Dave Carlson
Version: 1
Email: carlson-online@freeola.net

Ok i thought after i got such great feedback from my be yourself tab, i might as well 
this one a go aswell!

So enjoy suchs pretty much perfect to me!

Intro:

e|------------------------------------------------3-----------------|
B|-5-3-5-3-5-3------------------------------3-3-5---5-3-3-----------|
G|-------------4-2-4-2-4-2-4-2-0----0-2-2-4---------------4-2-2-0---|
D|-------------------------------2----------------------------------|
A|------------------------------------------------------------------|
E|------------------------------------------------------------------|


Main Riff:
[ Tab from: http://www.guitartabs.cc/tabs/a/audioslave/your_time_has_come_tab_ver_3.html ]
e|--------------------------------------------|
B|--------------------------------------------|
G|--------------------------------------------|
D|--------------------------------------------|
A|----5h7-5-------------5h7-5-----------------|
E|----------7-5-3-0-----------7-5-3-0-3s5-----|  x 4

Verse: Main Riff x 9

Chorus:

    G    D    A    E
e|--3----5----5----7---|
B|--3----7----5----9---|
G|--4----7----6----9---|
D|--5----7----7----9---|
A|--5----5----7----7---|
E|--3---------5----0---| x2

2nd Verse: Main Riff Until Chorus
Chorus x 2
Main Riff x 2

Solo (YET TO BE TABBED I AM WORKING ON IT!)

Main Riff x 4


Bridge:

    E    G    D    A  A  G
e|--0----3----5----5--5--3---|
B|--0----3----7----5--5--3---|
G|--1----4----7----6--6--4---|
D|--2----5----7----7--7--5---|
A|--2----5----5----7--7--5---|
E|--0----3---------5--5--3---| x4

Chorus x2
Main Riff x5

End on:
E|-7-|
B|-9-|
G|-9-|
D|-9-|
A|-7-|
E|---|


Enjoy folks!!
Comments