Audioslave - Your Time Has Come Chords & Tabs

 

Your Time Has Come Chords & Tabs

Audioslave Chords & Tabs

Version: 3 Type: Bass Tab 0 ratings
1 star 2 stars 3 stars 4 stars 5 stars
comments

Your Time Has Come Bass Tab

   
-------------------------------------------------------------------------------
			     Your Time Has Come - Audioslave
-------------------------------------------------------------------------------

Tabbed By :Gabe P. 
e-mail: tomoman@freemail.hu

Tuning:Standard

Intro/Verse

G|-----------------------------------------|
D|2-0-----------2~-0---------0~------------|
A|--- 2-0-----------2-0--------------------|
E|--------2-0~----------2-0----------------|

Chorus1

G|-----------------------------------------------------------------|
D|-----------------------------------------------------------------|
A|----------0---5 5555555--0--0--0-------7-----7/5-----------------|
E|-3- 3---3---7--------------------32-00---0-0---------------------|

Chorus2:It is the same as chorus 1, but he plays this version for two times in chorus2.

G|----------------------------------------------------------------|
D|----------------------------------------------------------------|
A|---------0---5-555-757--0--0--0--------7---7---7----------------|
E|-3--3--3---7--------------------32-0-0---0---0------------------|

[ Tab from: http://www.guitartabs.cc/tabs/a/audioslave/your_time_has_come_btab_ver_3.html ]
Under the guitar solo
G|----------------------------------------------------------------|
D|----------------------------------------------------------------|
A|---------0---5-5555555-0--0--0----------------------------------|
E|-3--3--3---7-------------------32-0--0000000--------------------|

G|----------------------------------------------------------------|
D|----------------------------------------------------------------|
A|---------0---5-55----0--0-0-------------------------------------|
E|-3--3--3---7------75--------32----------------------------------|


Brake
G|---------------------------------------------------------------|
D|---------------------------------------------------------------|
A|---------5~----------------------------------------------------|
E|-0~--3~-------5~---3-3-3--0~-----------------------------------|

This is my first tab,so if you find any mistakes please correct it, but it sounds great.If you want RATE IT!

| /  slide up
| \  slide down
| h  hammer-on
| p  pull-off
| ~  vibrato
| +  harmonic
| x  Mute note
===============================================================================
Comments