Audioslave - Yesterday To Tomorrow Chords & Tabs

 

Yesterday To Tomorrow Chords & Tabs

Audioslave Chords & Tabs

Version: 1 Type: Bass Tab

Yesterday To Tomorrow Bass Tab

   
Yesterday to Tomorrow
                                 Audioslave

Tabbed by: Joey Syer
bassist: Tim Commerford

Tuning
EADG

Tim uses alot of slides and double picks in the chorus and little variations here and 
I tried to catch them all.

intro/bridge 1
g|------------------------------------------------------------|
d|-7p5-5-7p5-5-7p5-5-7p5-5-7p5-5-7p5-5-7p5-5-7p5-5-7p5-5-7p5-5|  x3
a|------------------------------------------------------------|
e|------------------------------------------------------------|


verse
g|------------------------------------------------------------|
d|------------------------------------------------------------|
a|------------------------------------------------------------|
e|-5-5-3h5------3h5-5-3h5-5--------3-3------1-1-1-1-----------|

g|------------------------------------------------------------|
d|------------------------------------------------------------|
a|------------------------------------------------------------|
e|-3-5----------3h5-5-3h5-5--------3-3------3-1-1-1-----------|

g|------------------------------------------------------------|
d|------------------------------------------------------------|
a|------------------------------------------------------------|
e|-3-5----------3h5-5-3h5-5--------3-3------1-1-1-1-----------|
[ Tab from: http://www.guitartabs.cc/tabs/a/audioslave/yesterday_to_tomorrow_btab.html ]
g|------------------------------------------------------------|
d|------------------------------------------------------------|
a|------------------------------------------------------------|
e|-3-5----------3h5-5-3h5-5--------3-3------3-1-1-1-1-1-1-1-1-|

chorus
g|------------------------------------------------------------|
d|------------------------------------------------------------|
a|-0------------0-3----------------3-2-------------3-0--------|
e|------------------------------------------------------------|

g|----------------------------------|-------------------------|
d|----------------------------------|-------------------------|
a|-0-3----------3-2------------2/12-|-0-3-----3-7-------0-----|
e|----------------------------------|-------------------------|

g|-------------------------|
d|-------------------------|
a|-0-2-3-----2----0--------|
e|-------------------------|

verse 2

chorus

bridge 1
g|--------------------------------|
d|--------------------------------|
a|------------0-----0-2-----2-3---|
e|-1---0--------------------------|

g|--------------------------------|
d|--------------------------------|
a|------------0-----0-2-----2-3---|
e|-1---0--------------------------|

g|--------------------------------|
d|--------------------------------|
a|------------5---2---3---3---5---|
e|-1---0--------------------------|

bridge 2
g|------------------------------------------------------------|
d|-7p5-5-7p5-5-7p5-5-7p5-5-7p5-5-7p5-5-7p5-5-7p5-5-7p5-5-7p5-5|	  x3
a|------------------------------------------------------------|
e|------------------------------------------------------------|

chorus

intro


any corrections email me, joey_syer@hotmail.com