Audioslave - Worm Chords & Tabs

 

Worm Chords & Tabs

Audioslave Chords & Tabs

Version: 6 Type: Tab

Worm Tab

This Is My First Tab... I Think It Is Quite Correct. 
It is an awesome song by an awesome band, so i didn't want to totally butcher it.
email:stewy_062@hotmail.com

Intro:(2x)
e|---------------------------------------------------------------------------|
b|-----------------------------3p2-----------------------------------3p2-----|
g|---------2h4-4-2-4-4-2-4------------4p2----------2h4-4-2-4-4-2-4--------4~-|
d|---------------------------------------------------------------------------|
a|--0-2-------------------------------------0-2------------------------------|
b|---------------------------------------------------------------------------|

e|---------------------------------------------------------------------------|
b|---------------------------3p2----------------------------------3p2-3------|
g|-------2h4-4-2-4-4-2-4------------4p2----------2h4-4-2-4-4-2-4-------------|
d|---------------------------------------------------------------------------|
a|--0-2------------------------------------0-2-------------------------------|
b|---------------------------------------------------------------------------|

Verse: (4x)(w/Phaser)
e|----------------------------------------------------------------------|
b|----------------------------------------------------------------------|
g|----------------------------------------------------------------------|
d|----------------------------------------------------------------------|
a|----------------------------------------------------------------------|
b|--0~~~~~~~~~~~~~~~~~~~~~~~~~~~~~~~~~~~~~~~~~~~~~~~~~~~~~~~~~~~~~~~~~~~|

e|----------------------------------------------------------------------|
b|----------------------------------------------------------------------|
g|----------------------------------------------------------------------|
d|----------------------------------------------------------------------|
a|---2-0-2----5-2--5/7--------------------------------------------------| (First 3x only...
b|----------x--------------7h10-7-5-7-5-3--6-5-6--0--3h5----------------|  Go Right Into Chorus 4th Time)

Chorus:(w/Phaser)
e|-------------------------------|
b|-------------------------------|
g|-------------------------------|
d|-------------------------------|
a|-------------------------------|
b|---7---10---5-3-0--5-3-0-------|x3

e|------------------------------|
b|------------------------------|
g|------------------------------|
d|------------------------------|
a|------------------------------|
b|--12---10---5-3-0--5-3-0------|

Verse: (4x)(w/Phaser)
e|----------------------------------------------------------------------------------------------|
b|----------------------------------------------------------------------------------------------|
g|----------------------------------------------------------------------------------------------|
d|----------------------------------------------------------------------------------------------|
a|----------------------------------------------------------------------------------------------|
b|--0~~~~~~~~~~~~~~~~~~~~~~~~~~~~~~~~~~~~~~~~~~~~~~~~~~~~~~~~~~~~~~~~~~~~~~~~~~~~~~~~~~~~~~~~~~~|

e|----------------------------------------------------------------------|
b|----------------------------------------------------------------------|
g|----------------------------------------------------------------------|
d|----------------------------------------------------------------------|
a|---2-0-2----5-2--5/7--------------------------------------------------| (First 3x only...
b|----------x--------------7h10-7-5-7-5-3--6-5-6--0--3h5----------------|  Go Right Into Chorus 4th Time)

Chorus:(w/Phaser)
e|-------------------------------|
b|-------------------------------|
g|-------------------------------|
d|-------------------------------|
a|-------------------------------|
b|---7---10---5-3-0--5-3-0-------|x3
[ Tab from: http://www.guitartabs.cc/tabs/a/audioslave/worm_tab_ver_6.html ]
e|------------------------------|
b|------------------------------|
g|------------------------------|
d|------------------------------|
a|------------------------------|
b|--12---10---5-3-0--5-3-0------|

Intro Riff:
e|-------------------------------------------------------------------------|
b|-----------------------------3p2-----------------------------------3p2---|
g|---------2h4-4-2-4-4-2-4------------4p2----------2h4-4-2-4-4-2-4-------4~|
d|-------------------------------------------------------------------------|
a|--0-2-------------------------------------0-2----------------------------|
b|-------------------------------------------------------------------------|

e|-------------------------------------------------------------------------|
b|---------------------------3p2----------------------------------3p2-3----|
g|-------2h4-4-2-4-4-2-4------------4p2----------2h4-4-2-4-4-2-4-----------|
d|-------------------------------------------------------------------------|
a|--0-2------------------------------------0-2-----------------------------|
b|-------------------------------------------------------------------------|

Now Here's The Crazy Solo:
Digitech Whammy +2 octaves
(Key:   # =Push Whammy Toe Down, % = Slowly Raise Whammy Toe

e|--------------0----------------------------------------|
b|--------------0----------------------------------------|               
g|---16~--------0----------------------------------------|               
d|-------------------------------------------------------|
a|-------------------------------------------------------|
b|-------------------------------------------------------|(x3)        
      #        %                                           _ _ _ _ _ _ _    
					                  |Whole Thing x2 | 
e|-------------------------------------------------------| - - - - - - - -
b|-------------------------------------------------------|
g|----16----18----19-------------------------------------|
d|-------------------------------------------------------|
a|-------------------------------------------------------|
b|-------------------------------------------------------|
       #     #     #

Bridge:

e|-------------------------------------|
b|-------------------------------------|
g|--2-4-4--2-4-4--2-4-4--2-4-4--2-4----|
d|-------------------------------------|
a|-------------------------------------|
b|-------------------------------------|x8
  PM.................................
Intro Riff:
e|-------------------------------------------------------------------------|
b|-----------------------------3p2-----------------------------------3p2---|
g|---------2h4-4-2-4-4-2-4------------4p2----------2h4-4-2-4-4-2-4-------4~|
d|-------------------------------------------------------------------------|
a|--0-2-------------------------------------0-2----------------------------|
b|-------------------------------------------------------------------------|

e|---------------------------------------|
b|---------------------------3p2---------|
g|-------2h4-4-2-4-4-2-4----------4p2----|
d|---------------------------------------|
a|--0-2----------------------------------|
b|---------------------------------------|
then...
(w/Phaser)
e|------------------------------|
b|------------------------------|
g|------------------------------|
d|------------------------------|
a|------------------------------|
b|--12---10---5-3-0--5-3-0------|

Chorus:(w/Phaser)
e|-------------------------------|
b|-------------------------------|
g|-------------------------------|
d|-------------------------------|
a|-------------------------------|
b|---7---10---5-3-0--5-3-0-------|x3

e|------------------------------|
b|------------------------------|
g|------------------------------|
d|------------------------------|
a|------------------------------|
b|--12---10---5-3-0--5-3-0~~~~~~|

Please Rate...