Audioslave - Worm Chords & Tabs

 

Worm Chords & Tabs

Audioslave Chords & Tabs

Version: 5 Type: Tab

Worm Tab

sorry that this is just the intro but i'm almost 100% sure this is right, cus
when you see videos of tom playing it you can see his hand stays near the top
of the fret board and not down to the 7 frets like the other tabs say (not
that mines 100% right).

[ Tab from: http://www.guitartabs.cc/tabs/a/audioslave/worm_tab_ver_5.html ]
 e|-------------------------------------------------------------------------|
 B|-----------------------3-2----------------------------4-2----------------|
 G|-------2-4-4-2-4-4-2-4-----4-2--------2-4-4-2-4-4-2-4-----4--------------|
 D|-2--4---------------------------2--4-------------------------------------|
 A|-0--2---------------------------0--2-------------------------------------|
 E|-------------------------------------------------------------------------|

 e|-------------------------------------------------------------------------|
 B|-----------------------3-2----------------------------3-2-3--------------|
 G|-------2-4-4-2-4-4-2-4-----4-2--------2-4-4-2-4-4-2-4--------------------|
 D|-2--4---------------------------2--4-------------------------------------|
 A|-0--2---------------------------0--2-------------------------------------|
 E|-------------------------------------------------------------------------|