Audioslave - Worm Chords & Tabs

 

Worm Chords & Tabs

Audioslave Chords & Tabs

Version: 2 Type: Tab 0 ratings
1 star 2 stars 3 stars 4 stars 5 stars
comments

Worm Tab

   
Disregard my last attempt at tabbing this. I think this is correct.

Drop B Tuning
                            1st fill 2nd fill 3rd fill 4th fill
e[-------------------------]--------]-------]---------]---------]
b[-------------------------]-3^2----]-3^2---]-3^2-----]-3^2-3---]
g[---------2-4-4-2-4-4-2-4-]----4-2-]-----4-]-----4-2-]---------]
d[-------------------------]--------]-------]---------]---------]
a[-------------------------]--------]-------]---------]---------]
E[--10-12\-----------------]--------]-------]---------]---------]
[ Tab from: http://www.guitartabs.cc/tabs/a/audioslave/worm_tab_ver_2.html ]
Verse: starts with an open B, then the rest I can't figure out yet.

Chorus:
e[-------------------------------------------------------------------------]
b[-------------------------------------------------------------------------]
g[-------------------------------------------------------------------------]
d[-------------------------------------------------------------------------]
a[-------------------------------------------------------------------------]
E[--7-10--6-3-0-6-3-0--7-10--6-3-0-6-3-0--7-10-6-3-0-6-3-0--/12-10-6-3-0-6-]

e[-----]
b[-----]
g[-----]
d[-----]
a[-----]
E[-3-0-]
Comments