Audioslave - White Riot Chords & Tabs

 

White Riot Chords & Tabs

Audioslave Chords & Tabs

Version: 1 Type: Bass Tab 0 ratings
1 star 2 stars 3 stars 4 stars 5 stars
comments

White Riot Bass Tab

Band- Audioslave
Song- White Riot

Intro 

Part 1
G|-----------------------------|
D|-----------------------------|
A|-----55-----55-----55--5-7---| X2
E|-X5X5---X5X5---X5X5--------5-| 

Part 2
G|-------------------------------------------------------------------|
D|---997799--997799--997799779977-----997799--997799--997799779977---|
A|-------------------------------7\-------------------------------7\-|
E|-0-------0-------0----------------0-------0-------0----------------| 

Verse 1 (play intro part 1 twice)

Chorus part
G|-----------------------------------------------------------------|
D|-55442200--------------------------------------------------------|
A|---------332200--3-3-335-------------2233----22333-3-335---------|
E|---------------33-------3-33-333-3355----3355-----------3-33-333-|
[ Tab from: http://www.guitartabs.cc/tabs/a/audioslave/white_riot_btab.html ]
G|----------------------------------------------------|
D|-------------0022------------0022------------0022---|
A|-3-33-3333333----000000000000----333333333333-------|
E|-------------------------------------------------0--|

Verse 2 (play intro part 1 twice)

Chorus 2 (play chorus part)

Solo guitar part and verse 3
G|-----------------------------------------------------------------|
D|-----------------------------------------------------------------|
A|--------------------------------------777-----555-----555-5-7----|
E|-/12\-5------5------5------5------5-5----05-5----05-5----5----5--|

(Then play intro part 1 three times)

G|-------------------------------------------------------------------|
D|------------------------------------997799--997799--997799779977---|
A|----------------------------------------------------------------7\-|
E|-0---------------0----------------0-------0-------0----------------| 

For the ending, plays intro part 1 twice...
Comments