Audioslave - What You Are Chords & Tabs

 

What You Are Chords & Tabs

Audioslave Chords & Tabs

Version: 7 Type: Tab 0 ratings
1 star 2 stars 3 stars 4 stars 5 stars
comments

What You Are Tab

INTRO/VERSE
e--------------------------------------------------|
B--------------------------------------------------|
G--------------------------------------------------|
D---4-4-4--2-2-2--0-0-0-2-2-2----------------------|
A--2-2-2-22-2-2-22-2-2-4-4-4-----------------------|
E--------------------------------------------------|
[ Tab from: http://www.guitartabs.cc/tabs/a/audioslave/what_you_are_tab_ver_7.html ]
CHORUS
e--------------------------------------------------|
B--------------------------------------------------|
G-4444---------------------------------------------|
D-4444-4444-22---77777-----------------------------|
A-2222-4444-22---77777-----------------------------|
E------2222-00---55555-----------------------------|

repeat this part three times, and then:

e--------------------------------------------------|
B--------------------------------------------------|
G-11-11-11-11-11-11-11-11-11-11-10-9-7--2----------|
D-11-11-11-11-11-11-11-11-11-11-10-9-7--2----------|
A-9--9--9--9--9--9--9--9--9--9--8--7-5-00----------|
E--------------------------------------------------|

thats almost it!
i can't tab the solo, 'cause its kinda wierd...
but this is what a rythm guitarist can play!
hope you'll enjoy it!
-Stefan a.k.a Lazare
Comments