Audioslave - What You Are Chords & Tabs

 

What You Are Chords & Tabs

Audioslave Chords & Tabs

Version: 6 Type: Tab 0 ratings
1 star 2 stars 3 stars 4 stars 5 stars
comments

What You Are Tab

   
by:josh
band:Audioslave
album:Audioslave
song:What You Are
tuning:E A D G B E
date:November 25, 2002

this is an awsome song you should check it out.....simple yet awsome...

intro/verse : clean
E----------------------------------------------------------------
B----------------------------------------------------------------
G----------------------------------------------------------------
D----------------------------------------------------------------
A---9---9---9-----7---7---7------12----12----12------7---7---7---
E-7---7---7---7-5---5---5---5-10----10----10----10-5---5---5---0-

chorus : heavy distortion
E-------------------------------------
B-------------------------------------
G-------------------------------------
D-9-9-9-9-7-7-7-7-12-12-12-12-7-7-7-7-
A-9-9-9-9-7-7-7-7-12-12-12-12-7-7-7-7-
E-7-7-7-7-5-5-5-5-10-10-10-10-5-5-5-5-
[ Tab from: http://www.guitartabs.cc/tabs/a/audioslave/what_you_are_tab_ver_6.html ]
postchorus : heavy distortion
E--------------------------------
B--------------------------------
G--------------------------------
D-9-9-9-9-9-9-12-/-9-/-7-/-9-/-7-
A-9-9-9-9-9-9-12-/-9-/-7-/-9-/-7-
E-7-7-7-7-7-7-10-/-7-/-5-/-7-/-5-

solo : with some kinda pedal it isnt any that i own so....
E-----------------------------------------------------------
B-----------------------------------------------------------
G---4-2-4-7-4-2-4---4-2-4-7-4-2---4-2-4-7-4-2-4-4-4-4-4-4-4-
D-----------------------------------------------------------
A-2---------------2-------------2---------------2-2-2-2-2-2-
E-----------------------------------------------------------

breakdown : clean and played light
E-------------------------------------
B-------------------------------------
G-------------------------------------
D-9-9-9-9-7-7-7-7-12-12-12-12-7-7-7-7-
A-9-9-9-9-7-7-7-7-12-12-12-12-7-7-7-7-
E-7-7-7-7-5-5-5-5-10-10-10-10-5-5-5-5-

outro : heavy distortion
E--------------------------
B--------------------------
G--------------------------
D-9-9-9-9-9-9-12-9-7-9-7-9-
A-9-9-9-9-9-9-12-9-7-9-7-9-
E-7-7-7-7-7-7-10-7-5-7-5-7-

order:
intro/verse 6x
chorus 3x
postchorus 1x
intor/verse 6x
chorus 3x
postchorus 1x
solo 2x
breakdown 4x
chorus 3x
postchorus 1x
chorus 3x
outro 1x
Comments