Audioslave - The Last Remaining Light Chords & Tabs

 

The Last Remaining Light Chords & Tabs

Audioslave Chords & Tabs

Version: 1 Type: Bass Tab 0 ratings
1 star 2 stars 3 stars 4 stars 5 stars
comments

The Last Remaining Light Bass Tab

-------------------------------------------------------------------------------
			     SONG NAME - Band Name
-------------------------------------------------------------------------------

Tabbed By :sean
e-mail: seanymo500@msn.com

Tuning:BEAD   please dont hesitate to email me and tell me if i messed up
somewhere. Note: whenever you hear B on any of timmys song(what you are,
shadow of the sun, etc)this is usually the tunning he uses


INTRO                                                              Fill
D|--12----------11---------10---------9---------------------------|---------|
A|-----12-10-12----12-10-8----10-8-10---10-8-0-1-------3-------5--|---------|
E|-----------------------------------------------3-1-3---3-1-3----|-1-------|
B|----------------------------------------------------------------|---------|
[ Tab from: http://www.guitartabs.cc/tabs/a/audioslave/the_last_remaining_light_btab.html ]
VERSE Note the fill is always before you start the verse
D|------------------------------------------------------|
A|-5---------------3------2-------5------7-----3-----2--|
E|-----3-5-0---3-1----1-3-----1------3-5---3-1---1-3----|
B|------------------------------------------------------|


after you do the first verse hit a D
D|-----|
A|-----|
E|-----|
B|--3--|


SOLO 1
D|-------------------------------------------------------|
A|-5---------------3------2-------5------7-----3---------|
E|-----3-5-0---3-1----1-3-----1------3-5---3-1---1-3-----|
B|---------------------------------------------------0---|

CHORUS(use distortion)
D|----------|
A|----------|
E|-1-0---3--|
B|-----0----|

SOLO 2
D|--12----------11---------10---------9---------------------------|
A|-----12-10-12----12-10-8----10-8-10---10-8-0-1-------3-------5--|
E|-----------------------------------------------3-1-3---3-1-3----|
B|----------------------------------------------------------------|


order:
INTRO
VERSE
VERSE
SOLO 1
CHORUS
SOLO 2
CHROUS
Comments