Audioslave - Super Stupid Chords & Tabs

 

Super Stupid Chords & Tabs

Audioslave Chords & Tabs

Version: 1 Type: Tab 0 ratings
1 star 2 stars 3 stars 4 stars 5 stars
comments

Super Stupid Tab

   
-------------------------------------------------------------------------------
			     Super Stupid (AOL version) - Audioslave
-------------------------------------------------------------------------------
Tabbed by:Bas
Email:bvice@hotmail.com

Tuning:EADGBe

There is no timing, and I also didn't add how much time you have to repeat some bars, but
thats easy to figure out by listening to the song...
When he plays the song live, there are some small difference between the intro part, and the
solos, but I like the AOL version the most...

Intro
e|-----12--------15b-12----------------------------------12-14-15-14-12---------------|
B|15b-----15-12---------15-14-12-14-14bp12--12---12-14-15--------------15-14-12-14-15-|
G|----------------------------------------14------------------------------------------|
D|------------------------------------------------------------------------------------|
A|------------------------------------------------------------------------------------|
E|------------------------------------------------------------------------------------|

e|-12-14-15-14-12-----------------12-14-15-14-12----------------12-14-15-14-12|
B|----------------15-14-12-14-15-----------------15-14-12-14-15---------------|
G|----------------------------------------------------------------------------|
D|----------------------------------------------------------------------------|
A|----------------------------------------------------------------------------|
E|----------------------------------------------------------------------------|

e|--------------12-14-15-17-15-14-----------------12-14-15-14-12----------------------|
B|15-14-12-14-15-----------------17-15-14-12-14-15--------------15-14-12--------------|
G|----------------------------------------------------------------------14-13-12-13-14|
D|------------------------------------------------------------------------------------|
A|------------------------------------------------------------------------------------|
E|------------------------------------------------------------------------------------|
                
                         [Slow down here                      ]
e|---------12-14-15-14-12-----------------------------------------|
B|-12-14-15---------------15-14-12--------------------------------|
G|--------------------------------14-13-12------------------------|
D|------------------------------------------14-13-12--------------|
A|--------------------------------------------------14-13-12-11~~~|
E|----------------------------------------------------------------|


Pre-verse
e|--------------------------------------------------------------------------------|
B|--------------------------------------------------------------------------------|
G|--------------------------------------------------------------------------------|
D|----------------------x---------------------------------------------------------|
A|-7-5----------------5-x--7-5----------------------------------------------------|
E|-----7-5-3b-0--0-5-7----------7-5-3b-0------------------------------------------|

e|--------------------------------------------------------------------------------|
B|--------------------------------------------------------------------------------|
G|--------------------------------------------------------------------------------|
D|----------------------x---------------------------------------------------------|
A|-7-5----------------5-x--------------t12\\\\\-----------------------------------|
E|-----7-5-3b-0--0-5-7------------------------------------------------------------|


Short solo before verse

You can variate between this two bars:
e|-----------------------12-------------------------------------------------------|
B|--------------------12----15-12-------------------------------------------------|
G|--------------12-14-------------15-14-12----------------------------------------|
D|--------12-14-------------------------------------------------------------------|
A|-/12-14-------------------------------------------------------------------------|
E|--------------------------------------------------------------------------------|
			       OR
e|-----------------------12-------------------------------------------------------|
B|--------------------12----12-15-12----------------------------------------------|
G|--------------12-14----------------15-14-12-------------------------------------|
D|--------12-14-------------------------------------------------------------------|
A|----/14-------------------------------------------------------------------------|
E|--------------------------------------------------------------------------------|


Verse
e|--------------------------------------------------------------------------------|
B|--------------------------------------------------------------------------------|
G|--------------------------------------------------------------------------------|
D|-7/9--9--9---xx-6/7--7--7---xx-7/9--9--9---xx-6/7--7--7-------------------------|
A|-5/7--7--7---xx-4/5--5--5---xx-5/7--7--7---xx-4/5--5--5-------------------------|
E|--------------------------------------------------------------------------------|

[ Tab from: http://www.guitartabs.cc/tabs/a/audioslave/super_stupid_tab.html ]
Pre-Chorus
e|--------------------------------------------------------------------------------|
B|-9--8-7-8-9--ETC...-------------------------------------------------------------|
G|-10-9-8-9-10-ETC...-------------------------------------------------------------|
D|--------------------------------------------------------------------------------|
A|--------------------------------------------------------------------------------|
E|--------------------------------------------------------------------------------|


Chorus                             D U D UD
e|---------------------------------x-x-x-xx---------------------------------------|
B|---------------------------------x-x-x-xx---------------------------------------|
G|---------------------------------x-x-x-xx---------------------------------------|
D|---------x--5--------------------x-x-x-xx---------------------------------------|
A|-5h7-7-7-x----7-5------4h5-5-5---x-x-x-xx---------------------------------------|
E|-------------------5-3-----------x-x-x-xx---------------------------------------|


Pre-Solo
e|--------------------------------------------------------------------------------|
B|-9--8-7-8-9--ETC...-------------------------------------------------------------|
G|-10-9-8-9-10-ETC...-------------------------------------------------------------|
D|--------------------------------------------------------------------------------|
A|--------------------------------------------------------------------------------|
E|--------------------------------------------------------------------------------|


Solo

As far as I know it's the same scratching as the bulls on parade solo, but now it's
slower...


Pre-Pre-Solo =)
e|--------------------------------------------------------------------------------|
B|-9--8-7-8-9--ETC...-------------------------------------------------------------|
G|-10-9-8-9-10-ETC...-------------------------------------------------------------|
D|--------------------------------------------------------------------------------|
A|--------------------------------------------------------------------------------|
E|--------------------------------------------------------------------------------|


Pre-solo
e|--------------------------------------------------------------------------------|
B|--------------------------------------------------------------------------------|
G|--------------------------------------------------------------------------------|
D|----------------------x---------------------------------------------------------|
A|-7-5----------------5-x---------------------------------------------------------|
E|-----7-5-3b-0--0-5-7------------------------------------------------------------|

Solo

e|-----------------12-------15b-15b-15b-15b-15b\--------15-12-------12-15rb|
B|15b-15b-15b-15b-----15-12----------------------/12-15-------15-12--------|
G|-------------------------------------------------------------------------|
D|-------------------------------------------------------------------------|
A|-------------------------------------------------------------------------|
E|-------------------------------------------------------------------------|

e|--12-15rb-12-15-12-----12-15b-15rb---12-15-12-15rbr-12\----/12-12-15-12-14-12-15|
B|--------------------15----------------------------------------------------------|
G|--------------------------------------------------------------------------------|
D|--------------------------------------------------------------------------------|
A|--------------------------------------------------------------------------------|
E|--------------------------------------------------------------------------------|

e|12-14-12-15-12-17-12-19-12-15-12-14-12-15-12-14-12-15-12--14b15r-----12-14-15-14|
B|------------------------------------------------------------------15------------|
G|--------------------------------------------------------------------------------|
D|--------------------------------------------------------------------------------|
A|--------------------------------------------------------------------------------|
E|--------------------------------------------------------------------------------|

e|---12-14-15-14-----12-14-15-17-19-----12-14-15-14--12-15-12~\-|
B|15--------------15-----------------15-------------------------|
G|--------------------------------------------------------------|
D|--------------------------------------------------------------|
A|--------------------------------------------------------------|
E|--------------------------------------------------------------|

About this shredding part: It can variate very much, and I can't figure it
out exactly, but you have to play it with you whammy pedal set to 2 octaves up,
and I think you have to play something like this...:

e|------------------------------------5-6-7-8etc--10-11-12-13etc--15-16-17-18etc|
B|5-6-7-8etc-7-8-9-10etc-8-9-10-11etc-------------------------------------------|
G|------------------------------------------------------------------------------|
D|------------------------------------------------------------------------------|
A|------------------------------------------------------------------------------|
E|------------------------------------------------------------------------------|

e|t18\\\\-----------------------------------------------------------------------|
B|--------------------------8\\-------------------------------------------------|
G|-----------1~(1)b---------7\\-------------------------------------------------|
D|-----------2~(2)b---------6\\-------------------------------------------------|
A|-----------2~(2)b---------7\\-------------------------------------------------|
E|-----------0~(0)b-------------------------------------------------------------|




| /  slide up
| \  slide down
| h  hammer-on
| p  pull-off
| ~  vibrato
| +  harmonic
| x  Mute note
| D  Downstroke
| U  Upstroke
| rb Repeat bend ( you can also repick it if you want)

==============================================================================
Comments