Audioslave - Sound Of A Gun Chords & Tabs

 

Audioslave Chords & Tabs

Version: 1 Type: Tab 0 ratings
1 star 2 stars 3 stars 4 stars 5 stars
comments

Sound Of A Gun Tab

   
Song : Sound Of A Gun
Artist : Audioslave
Album : Revelations

 ---
Intro
 ---
[code]
|--15--15--15--15--19--19--19--19--17--17--17--17--14--14--14--14-----|
B|----17--17--17--17--17--17--17--17--17--17--17--17--15--15--15--15--|
G|--------------------------------------------------------------------|
D|--------------------------------------------------------------------|
A|--------------------------------------------------------------------|
D|--------------------------------------------------------------------|

e|--15--15--15--15--17--19--19--19--19--19--19-------------------------------------------------|
B|----17--17--17--17--17--17--17--17--17--17--17-----------------------------------------------|
G|---------------------------------------------------------------------------------------------|
D|---------------------------------------------------------------------------------------------|
A|---------------------------------------------------------------------------------------------|

[/code]
[ Tab from: http://www.guitartabs.cc/tabs/a/audioslave/sound_of_a_gun_tab.html ]
 ---
Main Riff After Intro
 ---
[code]
e|--------------------------------------------------------------------------------------------|
B|--------------------------------------------------------------------------------------------|
G|--------------------------------------------------------------------------------------------|
D|--------------0h2---0h2----x-x----2-----5-----7----x-x----0h2--0h2----x-x----2-----5-----7--|
A|---5h7--5h7---0h2---0h2----x-x----2-----5-----7----x-x----0h2--0h2----x-x----2-----5-----7--|

Play through twice [/code]


 ---
Verse Chords
 ---
E , D , C , D        - X 3
E,  D , C , A, E    - X 1


 ---
Chorus
 ---
[code]
e|--------------------------------------------------------|
B|--------------------------------------------------------|
G|--------------------------------------------------------|
D|---0h2--0h2----0h2---0h2----x-x----2----5-----7---------|
A|----------------------0h2---0h2----x-x----2----5-----7--|
D|----------------------0h2---0h2----x-x----2----5-----7--|/code] Play three times
[code]
e|------------------------------------------|
B|------------------------------------------|
G|------------------------------------------|
D|---x-x---0h2---0h2---x-x----2----5-----7--|
A|---x-x---0h2---0h2---x-x----2----5-----7--|
D|---x-x---0h2---0h2---x-x----2----5-----7--|/code] Play Once

 ---
 Solo  - Sorry, im out of ideas here.
 ---

Order
------------------
Intro
Main Riff After Intro
Verse Chords
Chorus
Verse Chords
Chorus
Solo
Intro ( With slight varations, listen and you can get it )
Build Up ( E , D , E , D  ... )
Main Riff After Intro
Chorus


This is my first tab that I have submitted to UG, so comments are helpful.

p.e.marriott@gmail.com
Comments