Audioslave - Set It Off Chords & Tabs

 

Set It Off Chords & Tabs

Audioslave Chords & Tabs

Version: 2 Type: Bass Tab 0 ratings
1 star 2 stars 3 stars 4 stars 5 stars
comments

Set It Off Bass Tab

Audioslave - Set It Off

Tabbed By Stephen Pang (piequat@hotmail.com)

This song is one of my favourites :)

Intro/Chorus End (except first chorus)
G|--------------2--|      G|------------------|
D|----------/4-----|      D|--------/4--2-----|
A|-----------------| x 3  A|---------------0--|
E|-0-2-0-2---------|      E|-0-2-0-2----------|
[ Tab from: http://www.guitartabs.cc/tabs/a/audioslave/set_it_off_btab_ver_2.html ]
Verse
G|--------------------------|      G|------------------|
D|--------------------------|      D|------------/2----|
A|--------------------------|  x3  A|---------------0--|
E|-2-0-2--2-0-2--2-0-5-2-0--|      E|-2-0-2--2-0-------|

Chorus
G|--------2-------------|      G|--------------|
D|----/4-----4-2---2-4--|      D|----/4--2-----|
A|---------------4------|  x3  A|-----------0--|
E|-2--------------------|      E|-2------------|

Bridge
G|----------------|
D|----------------|
A|----------------|
E|-2-2--2-2--2-2--|
Comments