Audioslave - Out Of Exile Chords & Tabs

 

Out Of Exile Chords & Tabs

Audioslave Chords & Tabs

Version: 3 Type: Tab 0 ratings
1 star 2 stars 3 stars 4 stars 5 stars
comments

Out Of Exile Tab

   
Drop D

Intro
e[----------------------------]
b[----------------------------]
g[-------------------10-------]
d[------------10--12-------12-]
a[-----12--12-----------14----]
E[--15------------------------]

Riff 1
e[--------------------------------------------------]
b[--------------------------------------------------]
g[--------------------------------------------------]
d[--------------------3-----------------------------]
a[-------3^5-5-5-X---------3----3^0-3-5-------3-----]
E[--\12----------X-3----3----5----------0-3-5---0---]
[ Tab from: http://www.guitartabs.cc/tabs/a/audioslave/out_of_exile_tab_ver_3.html ]
Verse
e[--------------------------------------------------------------------]
b[--------------------------------------------------------------------]
g[--------------------------------------------------------------------]
d[-------------19(16x's)-17(16x's)-15(12x's)--------------------------]
a[--17(16x's)--------------------------------20(2x's)-19(2x)----------]
E[--------------------------------------------------------------------]

Chorus
e[--------------------------------------------------]
b[--------------------------------------------------]
g[--------------------------------------------------]
d[--------------------3-----------------------------]
a[-------3^5-5-5-X---------3----3^0-3-5-------3-----]
E[--\12----------X-3----3----5----------0-3-5---0---]

e[---------------------------------------------------------]
b[---------------------------------------------------------]
g[---------------------------------------------------------]
d[---------------3---------X-X-X-X-X-X-X--------------3----]
a[--3^5-5-5-X---------3----X-X-X-X-X-X-X--------0-3-5------]
E[----------X-3----3----5--X-X-X-X-X-X-X--0-3-5------------]
Comments