Audioslave - Out Of Exile Chords & Tabs

 

Out Of Exile Chords & Tabs

Audioslave Chords & Tabs

Version: 2 Type: Tab 0 ratings
1 star 2 stars 3 stars 4 stars 5 stars
comments

Out Of Exile Tab

--------------------------------------------------------------------------------
                 Out Of Exile - Audioslave
-------------------------------------------------------------------------------
Tabbed by: Dave Carlson
Version: 1
Email: carlson-online@freeola.net


Intro:

e|------------------------1----------------|
B|--------------1------3-----------3-------|
G|----2------2------------------4----------| 2x
D|-3---------------------------------------|
A|-----------------------------------------|
D|-----------------------------------------|

Main Riff:

e|---------|-------------------------------------------------|
B|---------|-------------------------------------------------|
G|---------|--5/7-7-7----------------------------------------|
D|--12\0---|--5/7-7-7--x-3---3-------------------------------|
A|--12\0---|--3/5-5-5--x-3-------5----3p0-3-5----------------|
D|--12\0---|-----------x-3-----3---5-----------0-3-5-7-0-----| x4
     ^ Play this every 2nd time you play the riff 

Verse

e|----------5-(x14)---3-(x14)---1(x14)--0-0-0-0------------|
B|-3-(x14)-------------------------------------------------|
G|---------------------------------------------------------|
D|---------------------------------------------------------|
A|---------------------------------------------------------|
D|---------------------------------------------------------| x3

After 3 of the above, it this variation:
[ Tab from: http://www.guitartabs.cc/tabs/a/audioslave/out_of_exile_tab_ver_2.html ]
e|----------5-(x14)---3-(x14)-----------------|
B|-3-(x14)----------------------3 (x14)-------|
G|--------------------------------------------|
D|--------------------------------------------|
A|--------------------------------------------|
D|--------------------------------------------|


Chorus: 

e|-----------------------------------------------------------|
B|-----------------------------------------------------------|
G|---------5/7-7-7-------------------------------------------|
D|--12\0---5/7-7-7--x-3---3-----------------------------15\--|
A|--12\0---3/5-5-5--x-3-------5----3p0-3-5--------------15\--|
D|--12\0------------x-3-----3---5-----------0-3-5-7-0---15\--|

e|---------------------------------------------------------------|
B|---------------------------------------------------------------|
G|----5/7-7-7----------------------------------------------------|
D|----5/7-7-7--x-3---3--------x-x-x-x--x-x-x------------------3--|
A|----3/5-5-5--x-3-------5----x-x-x-x--x-x-x--------------3-5----|
D|-------------x-3-----3---5--x-x-x-x--x-x-x----0-3-5-7-0--------| x2


Verse 2
Chorus
Verse 3
Chorus
Intro
Chorus

Outro:

e|---------------------------|----------------|
B|---------------------------|----------------|
G|----5/7-7-7----------------|----------------|
D|----5/7-7-7--x-3---3-------|-x-x-x-x--x-x-x-|
A|----3/5-5-5--x-3-------5---|-x-x-x-x--x-x-x-|
D|-------------x-3-----3---5-|-x-x-x-x--x-x-x-|
                              Repeat Mute until End
Comments