Audioslave - Number 1 Zero Chords & Tabs

 

Number 1 Zero Chords & Tabs

Audioslave Chords & Tabs

Version: 1 Type: Tab 1 rating
1 star 2 stars 3 stars 4 stars 5 stars
comments

Number 1 Zero Tab

Audioslave - #1 Zero
Album- out of exile

intro:

E----------------------------------|
B---------------------------12-----|
G------11---12---14----------------|
D-/14-------------------12---------|
A----------------------------------|
E----------------------------------|

pre-verse :
(With Digetech Wammy Pedal set 1 octave up, rock pedal back and forth with each note)

E-----------------------------------------------------------------------------------------|
B-----------------------------------------------------------------------------------------|
G-----------------------------------------------------------------------------------------| 
D-------12------12--------12--------------------------------------------------------------| 
A---14------14-------14----------14----------12----10----9-----------12----10----9--------|
E-------------------------------------15----------------------10-----------------------10-|

E-------------------|
B-------------------|
G-------------------|
D-------------/9----|    
A---12---10---------|
E-------------------|

verse :
(with tremelo pedal)
                 
                *pick chord                   *pick chord    
E---0-------0--------------------0--------0--------------------|
B---0-------0--------------------1--------1--------------------|
G---0-------0--------------------2--------2--------------------|
D---2-------2--------------------2--------2--------------------| 
A---2-------2--------------------0--------0--------------------|
E---0-------0--------------------0--------0--------------------|  3x\'s
                         
E--8--------5-----------------------------8--------7-----------|
B--8--------5-----------------------------8--------7-----------|
G--7--------6--------------14-------------7--------8-----------|
D--10-------7---------/14-----------------10-------9-----------|  
A--10-------7-----------------------------10-------9-----------|
E--8--------5-----------------------------8--------7-----------|

pre-verse 
verse

pre-chorus:

E--0-----------0-----|
B--1-----------0-----|
G--0-----------0-----|
D--2-----------2-----|  
A--3-----------2-----|
E--------------0-----|

chorus:
(heavy distortion)

E-----------------------------------|
B-----------------------------------|
G-------------------7---9-----------|
D--5---4------2-2---7---9----2-2----|  
A--5---4------2-2---5---7----2-2----|
E--3---2------0-0------------0-0----|  3x\'s

E----------------------------------------------------|
B----------------------------------------------------|
G-------------------------------------------0h2------|
D--------------------------------------0h2--------2--|  
A---------------------------------0h2----------------|
E--3--5-5--3--5--5--3--5-5---------------------------|

E---------------------------------|
B---------------------------------|
G-------------------7---9---------|
D--5---4------2-2---7---9----2-2--|  
A--5---4------2-2---5---7----2-2--|
E--3---2------0-0------------0-0--|  2x\'s
[ Tab from: http://www.guitartabs.cc/tabs/a/audioslave/number_1_zero_tab.html ]
E---------------------------------|
B---------------------------------|
G---------------------------------|
D--5-/-7---7--7-------------------|  
A--5-/-7---5--5-------------------|
E--3-/-5---5--5-------------------| 3x\'s

E--------------------------------|
B--------------------------------|
G----------0h2-------------------|
D------0h2------2----------------|  
A--0h2---------------------------|
E--------------------------------|

solo 
                                                                              *Descend scale
E-------------------------------------------------------18b--------------------------------|
B--14b--14b--14b-----18--16------18~~~------18--16-------------18--16------17b-------------|
G--15b--15b--15b-------------17---------------------17-----------------17------------------|
D------------------------------------------------------------------------------------------|
A—-----------------------------------------------------------------------------------------|
E------------------------------------------------------------------------------------------|

(With Digitech Wammy Pedal set 1 octaves up, rock pedal back and forth with each note)
E----------------------------------------------|
B----------------------------------------------|
G----------------------------------------------|
D------21~~-------21~~-------21~~--------------|
A—-22--------22----------22~~-------22---21~~--|
E----------------------------------------------|

- delay pedal with an ascending scale from around the 14th fret up to the 22th fret
  end solo with a bend on the 22th fret of the high \'E\' string

Bridge:
E--------------------------------|
B--------------------------------|
G--------------------------14----|
D--10--------7--------/14--------|  2x\'s
A--10--------7-------------------|
E--8---------5-------------------|

pre-chorus

outro:
(With Digetech Wammy Pedal set 1 octave up, rock pedal back and forth with each note)

E-------------------------------------------------------------------------------------------|
B-------------------------------------------------------------------------------------------|
G-------------------------------------------------------------------------------------------| 
D-------12------12--------12----------------------------------------------------------------| 
A---14------14-------14----------14----------12----10----9-----------12----10----9----------|
E-------------------------------------15----------------------10-----------------------10---|

E-------------------------------------------------------------------------------------------|
B-------------------------------------------------------------------------------------------|
G-------------------------------------------------------------------------------------------|
D-------------------------------------------------------------------------------------------|    
A--12---10------/14---------------10--9----9--5-----/7-----/9------/10------/12------/14----|
E-------------------------------------------------------------------------------------------|


Tabbed by: chris johnstone
Tabbed on: June 2, 2005

\"i be tha anti-myth, rythm rock shocka!\" - zack de la rocha


 
 
Comments