Audioslave - Light My Way Chords & Tabs

 

Light My Way Chords & Tabs

Audioslave Chords & Tabs

Version: 4 Type: Tab 0 ratings
1 star 2 stars 3 stars 4 stars 5 stars
comments

Light My Way Tab

Artist             :  Audioslave
Album              :  Audioslave
Song               :  Light My Way

Transcribed by     :  Derek Kline
Date               :  11/29/02
E-mail             :  PSXplayer87@aol.com


Tuning             :  Dropped D


The intro to this song is weird and I have no clue there.  But the
rest of the song is pretty simple.  Pretty sure this is as accurate
as they come.



[Main/Chorus Riff]  heavy distortion

e|-------------------------------
B|-------------------------------
G|-------------------------------
D|-------------------------------
A|----------3-5-3-------------5--
D|--3-0-0-0-------3-0-0-0-3-5----


[Verse Riff]  I use a fuzz wah.  Just wah every note.  That easy...

e|-------------------
B|-------------------
G|-------------------
D|--0-0-3-3----------
A|----------3-3-3-3--
D|-------------------


[Interlude]  light distortion
[ Tab from: http://www.guitartabs.cc/tabs/a/audioslave/light_my_way_tab_ver_4.html ]
e|-------------------------------------------------------------------
B|-------------------------------------------------------------------
G|------2-------2-------5-------5-------5-------5-------2-------2----
D|----2---2---2---2---5---5---5---5---2---2---2---2---3---3---3---3--
A|--0-------0-------3-------3-------0-------0-------0-------0--------
D|-------------------------------------------------------------------

  --5--3--5--3--3--3--3-----
  --5--3--5--3--3--3--3-----
  --7--2--7--2--2--2--2-----
  --7--3--7--3--3--3--3-----
  --5--3--5--3--3--3--3-----
  -----3-----3--3--3--3-----


[Interlude Part 2]  heavy distortion

e|-----------------------
B|-----------------------
G|-----------------------
D|--5-7-5-7---5-7-5-7----
A|--3-5-3-5-0-3-5-3-5-0--
D|----------0---------0--


And that's it for guitar.  In the background during the second verse
there are some weird noises.  Some people say its guitar but to me it
sounds like some weird digital crap.  Anyways it's not important.
Comments