Audioslave - Light My Way Chords & Tabs

 

Light My Way Chords & Tabs

Audioslave Chords & Tabs

Version: 1 Type: Bass Tab 0 ratings
1 star 2 stars 3 stars 4 stars 5 stars
comments

Light My Way Bass Tab

Audioslave - Light My Way

Tabbed By Stephen Pang (piequat@hotmail.com)

*Dropped D Tuning*

Chorus
G|--------------------|--------------------|
D|--------------------|--------------------|
A|-5---------3--5--3--|-5---------------3--|
D|---0--0--0----------|---0--0--0-3--5-----|

G|--------------------|
D|--------------------|
A|-5------------------|  (last 2 chorus)
D|---0--0--0-3--5--6--|

Verse
G|-----------------------|
D|--------3--------------|
A|------5----------------|
D|-3-5-------3-7--5/7-5--|
[ Tab from: http://www.guitartabs.cc/tabs/a/audioslave/light_my_way_btab.html ]
Bridge
G|-------------------|-----------------|-----------------|
D|-------------------|-----------------|-----------------|
A|-----3-------------|-----------------|-3-3-3-3-3-3-3-3-|
D|-7-------6---5---6-|-7-7-7-7-7-7-7-7-|-----------------|

G|-----------------|-----------------|
D|-----------------|-----------------|
A|-----------------|-----------------|
D|-6-6-6-6-6-6-6-6-|-5-5-5-5-5-5-5-5-|

G|--------------|------------|
D|--------------|------------|
A|-3--5-3--5----|-3--5-3--5--|
D|-----------0--|------------|
Comments