Audioslave - Heavens Dead Chords & Tabs

 

Heavens Dead Chords & Tabs

Audioslave Chords & Tabs

Version: 3 Type: Tab 0 ratings
1 star 2 stars 3 stars 4 stars 5 stars
comments

Heavens Dead Tab

   
-------------------------------------------------------------------------------
			     Heaven's Dead-Audioslave
-------------------------------------------------------------------------------
Tabbed by: DirkLance
Email: keithnate@AOL.com

Tuning: Drop D (DADGBE)

Intro/Verse: (This song isn't very fast, so the timing is easy. I didn't put slides in,
because the tab would become a little messy, but it sounds like Morello is sliding his
finger on the A string as he's switching frets.) 

e|-------------------------------------------------------| (x3)
B|-------------------------------------------------------|
G|-------------------------------------------------------|
D|-------------------------------------------------------|
A|9-9-9-10-10-10-7-7-7-9-9-9-5-5-5-7-7-7----------5-5-5--|
D|-0-0-0--0-0-0-0-0-0-0-0-0-0-0-0-0-0-0-9-11-12--0-0-0-|

Chorus 1: (This is a short chunk of the chorus...just strum the first two chords (the
pattern is easy), and play the last chord once and let it ring before you go back to the Verse)

e|------------------------|
B|------------------------|
G|------------------------|
D|--5-7---3*-------------|
A|--5--7---3*-------------|
D|--5--7---3*-------------|

Verse Riff (x3)

Chorus 2: (This is the full chorus...but it's still just as simple.)

e|---------------| (x2)
B|---------------|
G|---------------|
D|--5--7--3--2---|
A|--5--7--3--2---|
D|--5--7--3--2---|
[ Tab from: http://www.guitartabs.cc/tabs/a/audioslave/heavens_dead_tab_ver_3.html ]
Solo: (This is one of the easier solos on the CD because it's pretty straight forward,
and Morello isn't using millions of pedals.  I've got the jist, but if anyone has any
corrections, e-mail them to me.)

e|-----------------------------------------------------------------------------|
B|--15-------------------------------------------------------------------------|
G|-------14b-12p11------------------------14----14p12p11h12h1111 12p11--------|
D|12--12-----------14-12-14b14b14b12----12--12----------------14--------14p12--|
A|-----------------------------------14----------------------------------------|
D|-----------------------------------------------------------------------------|

e|---------14---------------|
B|------------15------------|
G|------14------------------|
D|--(12)--------------------|
A|14------------------------|
D|--------------------------|

Breakdown: (This is also questionable...but I think it sounds good. Let me know what
you guys think about this one too.)

e|-------------------------------------------| (x4)
B|-----------------------------------7-------|
G|-11-9-7-6------------------------5---------|
D|-0--0-0-0------------------4-5-7-----------|
A|-0--0-0-0-0-2--4-0-----3h5-----------------|
D|----------0-2--4-0-------------------------|

Chorus Riff (x2)
Verse Riff (x1)
Breakdown Riff (x4)

Well, that's the song. Like I said, any corrections would be more than welcome. This
is my first tab, so go easy! Any comments can be sent to keithnate@aol.com.  Thanks for
reading!

~DirkLance

| /  slide up
| \  slide down
| h  hammer-on
| p  pull-off
| ~  vibrato
|( ) harmonic
| x  mute note
| b  bend
===============================================================================
Comments