Audioslave - Exploder Chords & Tabs

 

Exploder Chords & Tabs

Audioslave Chords & Tabs

Version: 3 Type: Tab 0 ratings
1 star 2 stars 3 stars 4 stars 5 stars
comments

Exploder Tab

Band: AudioSlave
Song: Exploder

 Mute = X

Intro:      (sixteenth notes)
|-----------------------------------|
|-777777777777777777777777777777777-|  x2
|-----------------------------------|
|-----------------------------------|
|-----------------------------------|
|-----------------------------------|

Riff 1:
|----------------------------------------------------------------|
|-7-7-7-7-7-7-7-7-7-7-7-7-7-7-7-7-7-7-7-7-7-7-7-7-7-7-7-7-7-7-7-7|
|----------------------------------------------------------------|
|----------------------------------------------------------------|
|----------------------------------------------------------------|
|----------------------------------------------------------------|

|----------------------------------------------------------------|
|-5-5-5-5-5-5-5-5-5-5-5-5-5-5-5-5-5-5-5-5-5-5-5-5-5-5-5-5-5-5-5-5|
|----------------------------------------------------------------|
|----------------------------------------------------------------|
|----------------------------------------------------------------|
|----------------------------------------------------------------|

|----------------------------------------------------------------|
|-7-7-7-7-7-7-7-7-7-7-7-7-7-7-7-7-7-7-7-7-7-7-7-7-7-7-7-7-7-7-7-7|
|----------------------------------------------------------------|
|----------------------------------------------------------------|
|----------------------------------------------------------------|
|----------------------------------------------------------------|

|----------------------------------------------------------------|
|-5-5-5-5-5-5-5-5-5-5-5-5-5-5-5-5-5-5-5-5-5-5-5-5-5-5-5-5-5-5-5-5|
|----------------------------------------------------------------|
|----------------------------------------------------------------|
|----------------------------------------------------------------|
|----------------------------------------------------------------|

Chorus:

|------------------------------------------------------------------|
|------------------------------------------------------------------|     
|------------------------------------------------------------------| x4
|----------------------------X-X-X---------------------------------|
|4-----------4---------------X-X-X---4-------------4---------------|
|-2--0--2--0---2--0--2--0----X-X-X-----2--0--2--0-----2-0-2-0---2--|
                                                             Bend 1/2
                                                                 
Riff 2:
(basically same as Riff 1 cept a little more)

|----------------------------------------------------------------|
|-7-7-7-7-7-7-7-7-7-7-7-7-7-7-7-7-7-7-7-7-7-7-7-7-7-7-7-7-7-7-7-7|
|----------------------------------------------------------------|
|----------------------------------------------------------------|
|----------------------------------------------------------------|
|----------------------------------------------------------------|

|----------------------------------------------------------------|
|-5-5-5-5-5-5-5-5-5-5-5-5-5-5-5-5-5-5-5-5-5-5-5-5-5-5-5-5-5-5-5-5|
|----------------------------------------------------------------|
|----------------------------------------------------------------|
|----------------------------------------------------------------|
|----------------------------------------------------------------|
[ Tab from: http://www.guitartabs.cc/tabs/a/audioslave/exploder_tab_ver_3.html ]
|----------------------------------------------------------------|
|-7-7-7-7-7-7-7-7-7-7-7-7-7-7-7-7-7-7-7-7-7-7-7-7-7-7-7-7-7-7-7-7|
|----------------------------------------------------------------|
|----------------------------------------------------------------|
|----------------------------------------------------------------|
|----------------------------------------------------------------|

|----------------------------------------------------------------|
|-5-5-5-5-5-5-5-5-5-5-5-5-5-5-5-5-5-5-5-5-5-5-5-5-5-5-5-5-5-5-5-5|
|----------------------------------------------------------------|
|----------------------------------------------------------------|
|----------------------------------------------------------------|
|----------------------------------------------------------------|

|----------------------------------------------------------------|
|-7-7-7-7-7-7-7-7-7-7-7-7-7-7-7-7-7-7-7-7-7-7-7-7-7-7-7-7-7-7-7-7|
|----------------------------------------------------------------|
|----------------------------------------------------------------|
|----------------------------------------------------------------|
|----------------------------------------------------------------|

|----------------------------------------------------------------|
|-5-5-5-5-5-5-5-5-5-5-5-5-5-5-5-5-5-5-5-5-5-5-5-5-5-5-5-5-5-5-5-5|
|----------------------------------------------------------------|
|----------------------------------------------------------------|
|----------------------------------------------------------------|
|----------------------------------------------------------------|

Chorus Again:

|------------------------------------------------------------------|
|------------------------------------------------------------------|     
|------------------------------------------------------------------| x4
|----------------------------X-X-X---------------------------------|
|4-----------4---------------X-X-X---4-------------4---------------|
|-2--0--2--0---2--0--2--0----X-X-X-----2--0--2--0-----2-0-2-0---2--|
                                                             Bend 1/2   

Solo (Octave Pedal):
|----------------------------------------------------------------|
|------19-------19------19-----19------19-----19----19------19---|
|----------------------------------------------------------------|
|--16------16------16------16------16-----16----16-----16--------|
|----------------------------------------------------------------|
|----------------------------------------------------------------|

|----------------------------------------------------------------|
|------17-------17------17-----17------17-----17----17-----17----|
|----------------------------------------------------------------|
|--14------14------14------14------14-----14----14-----14--------|
|----------------------------------------------------------------|
|----------------------------------------------------------------|


|------------17-----------19---------------21-------------22---------|
|------19-----------19-------------19----------------19--------------|
|--------------------------------------------------------------------|
|--16-----16-----16-----16-----16-------16-------16-----16-----------|
|--------------------------------------------------------------------|
|--------------------------------------------------------------------|

|---------------17---------17--------16-----------------------------------|
|------17---------------------------------17---15---14--------------------|
|------------------------------------------------------14-----------------|
|-14--------14-------14---------14-------------------------16-------16----|
|----------------------------------------------------------------Bend Full|
|-------------------------------------------------------------------------|

Riff 1

Chorus

Outro (whammy):

|---------------------------|
|--7---7---7---7---7---7----|
|---------------------------|
|--4---4---4---4---4---4----|
|---------------------------|
|---------------------------|

MCH
Comments