Audioslave - Exploder Chords & Tabs

 

Exploder Chords & Tabs

Audioslave Chords & Tabs

Version: 1 Type: Bass Tab 0 ratings
1 star 2 stars 3 stars 4 stars 5 stars
comments

Exploder Bass Tab

-------------------------------------------------------------------------------
			     Exploder - AudioSlave
-------------------------------------------------------------------------------
Tabbed By : Craig Fox
e-mail: thebebop14752@bolt.com

Tuning: Norm

this is a really easy song the only exeption is i couldn't figure out the part
during tom's solo (considering i don't have a bass i think i did good)

 Intro / Verse  
G|---------------------------------------------------------------------------|
D|-4------------------4------------------------------------------------------|
A|---------------------------------------------------------------------------|
E|----2--0--2--0---------2--0--2--0------------------------------------------|

Chorus
[ Tab from: http://www.guitartabs.cc/tabs/a/audioslave/exploder_btab.html ]
G|---------------------------------------------------------------------------|
D|--4-------------------4----------------------------------------------------|
A|---------------------------------------------------------------------------|
E|-----2--0--2--0----------2--0--2--0---x-x-x-x------------------------------|

G|---------------------------------------------------------------------------|
D|--4----------------4-------------------------------------------------------|
A|---------------------------------------------------------------------------|
E|-----2--0--2--0-------2--0--2--0-----3/up\---------------------------------|

this is the end part imitating the guitar part

G|---------------------------------------------------------------------------|
D|---------------------------------------------------------------------------|
A|--10-10-10-10--10-10-10-10--10-10-10-10--10-10-10-10-----------------------|
E|---------------------------------------------------------------------------|

G|---------------------------------------------------------------------------|
D|---------------------------------------------------------------------------|
A|--8-8-8-8--8-8-8-8--8-8-8-8--8-8-8-8---------------------------------------|
E|---------------------------------------------------------------------------|
Comments