Audioslave - Drown Me Slowly Chords & Tabs

 

Drown Me Slowly Chords & Tabs

Audioslave Chords & Tabs

Version: 1 Type: Tab 2 ratings
1 star 2 stars 3 stars 4 stars 5 stars
comments

Drown Me Slowly Tab

Artist: Audioslave
Album: Out of Exile
Track: Drown Me Slowly

Tabbed by LedRevolution19 [ledrevolution19@yahoo.com]


This is probably my favorite song off this album. Please send any corrections to the email
address listed above.


Drop D tuning


Intro/Bridge Riff_____

e|--0-0-0-0-0-0-0-0--0-0-0-0-0-0-0-0--0-0-0-0-0-0-0-0-------------------
B|-5-5-5-5-5-5-5-5--3-3-3-3-3-3-3-3--1-1-1-1-1-1-1-1--------------------	play 2x
G|----------------------------------------------------------------------
D|----------------------------------------------------------------------
A|----------------------------------------------------------------------
D|----------------------------------------------------------------------

|------First Time------|	|---Second Time---|

e|--0-0-0-0---0-0--0-0-		e|----------------|
B|-5-5-5-5---7-7--8-8--		B|----------------|
G|---------------------		G|--7-(let ring)--|
D|---------------------		D|--7-------------|
A|---------------------		A|--5-------------|
D|---------------------		D|----------------|


Verse_________________

Listen to the song to get the timing, it's pretty simple.
[ Tab from: http://www.guitartabs.cc/tabs/a/audioslave/drown_me_slowly_tab.html ]
e|---------------------------------------------------------------------------------|
B|---------------------------------------------------------------------------------|
G|---------------------------------------------------------------------7-(let ring)|
D|--0--2-----------------5--7--------------0--0---2-----------------5--7-----------|
A|--0--2-----------------5--7--------------0--0---2-----------------5--5-----------|
D|--0--2-----------------5--7--------------0--0---2-----------------5--------------|


Chorus Riff___________

e|-------------------------------------------------------------|
B|-------------------------------------------------------------|
G|-------------------------------------------------------------|
D|--2--2--------2---2------------2---2--------2-------------5--|
A|--2--2---7p5--2---2---7p5------2---2---7-5--2---7--5-7-5--5--|
D|--2--2--------2---2-------5b---2---2--------2-------------5--|


Solos_________________

During the Bass solo, Tom does a lot of high pickscrapes while using
the wah pedal. I don't have a trem bar on my guitar so I can't tab out his
guitar work.

Riff 2________________

e|-------------------------------------------------------------|
B|-------------------------------------------------------------|
G|-------------------------------------------------------------|
D|--2-2-2-2------2-2-2-2------2-2-2-2-------5--2--5------------|  4x
A|--2-2-2-2--7\--2-2-2-2--7\--2-2-2-2--7\---5--2--5------------|
D|--2-2-2-2------2-2-2-2------2-2-2-2-------5--2--5------------|

On 4th time, play let the E power chord ring after the riff


Sequence______

Intro x2
Verse x1
Chorus x4
Verse x1
Chorus x4
(Bass Solo)
(Guitar Solo)
Intro x6
Chorus x4
Riff 2 x4
Comments