Audioslave - Drown Me Slowly Chords & Tabs

 

Drown Me Slowly Chords & Tabs

Audioslave Chords & Tabs

Version: 3 Type: Bass Tab

Drown Me Slowly Bass Tab

   
#----------------------------------PLEASE NOTE---------------------------------#
#This file is the author's own work and represents their interpretation of the #
#song. You may only use this file for private study, scholarship, or research. #
#------------------------------------------------------------------------------##

Drown Me Slowly - Audioslave

Bass by Tim Commeford


I play this song in dropped-D. The chorus/guitar solo riff is in 15/8, I only did this
for easier reading.

Gtr I (D A D G) - 'Untitled'

 Intro
  Q=96
 4/4
  Gtr I
  W     +E  E. E. E. E. E   E. H.    +S    +E  E. E. E. E. E   E. H.       +S
|-----|-------------------|--------------|-------------------|-----------------|
|-----|-------------------|--------------|-------------------|-----------------|
|-----|-----7--5----------|--------------|-----5--5----------|-----------------|
|-2---|-(2)-------9--7--5-|-7--2-----(2)-|-(2)-------9--7--5-|-7--2--------(2)-|


  +E  E. E. E. E. E   E. H.      +S    H.      Q
|-------------------|----------------|------------|
|-------------------|----------------|------------|
|-----7--5----------|----------------|-5----------|
|-(2)-------9--7--5-|-7--2-------(2)-|---------0--|


 Verse
  Q.   Q.   Q    H.      Q    Q.   Q.   Q    H    Q  Q
|--------------|------------|--------------|--------------|
|--------------|------------|--------------|--------------|
|--------------|------------|--------------|--------------|
|-2-----------|---------5--|-7-----------|------0--0------|


  Q.   Q.   Q    H.      Q   W          +W
|--------------|-----------|----------|----------|
|--------------|-----------|----------|----------|
|--------------|-----------|-5--------|-(5)------|
|-2-----------|---------5-|----------|-----------|


   Chorus
   15/8
    E. S S S E. S S S E E. S S S E E S S S E.  3x
||---------------------------------------------||
||o-------------------5-----------------------o||
||o----5-7-5----5-7-5------5-7-5---7-5-7-5----o||
||--2--------2----------2--------2---------5---||


  E. S S S E. S S S E E. S S S E +Q   Q
|-----------------------------------------|
|-------------------5---------------------|
|----5-7-5----5-7-5------5-7-5------------|
|-2--------2----------2--------2-(2)--0---|


 Verse
 4/4
  Q.   Q.   Q    H.      Q    Q.   Q.   Q    H    Q  Q
|--------------|------------|--------------|-------------|
|--------------|------------|--------------|-------------|
|--------------|------------|--------------|-------------|
|-2-----------|---------5--|-7-----------|------0--0-----|


  Q.   Q.   Q    H.      Q   W          +H.      S S E
|--------------|-----------|----------|------------------|
|--------------|-----------|----------|--------------5---|
|--------------|-----------|-5--------|-(5)------5h7-----|
|-2-----------|---------5-|----------|-------------------|


   Chorus
   15/8
    E. S S S E. S S S E E. S S S E E S S S E.  3x
||---------------------------------------------||
||o-------------------5-----------------------o||
||o----5-7-5----5-7-5------5-7-5---7-5-7-5----o||
||--2--------2----------2--------2---------5---||


  E. S S S E. S S S E E. S S S E +Q   Q
|-----------------------------------------|
|-------------------5---------------------|
|----5-7-5----5-7-5------5-7-5------------|
|-2--------2----------2--------2-(2)--0---|

In this part I tabbed two areas on which you could play this part, those notes aren't 
Me, for example, I like to play it starting at the 12th fret.

 Bass Solo
 4/4
  Q.    S  S  S  S  S  S  S  S  S  S    S  S  S  S  S  S  S  S  S  S  E Q
|------------------------------------|-------------------------------------|
|------------------------------------|-------------------------------------|
|-------5h=7--7--5h=7--7--5h=7--7--7p|==5--5--5h=7--7--7p=5--5--5h=7--7----|
|-2----12h14-14-12h14-14-12h14-14-14p|=12-12-12h14-14-14p12-12-12h14-14-5--|


  Q.    S  S  S  S  S  S  S  S  S  S    S  S  S  S  S  S  S  S Q  Q
|------------------------------------|-------------------------------|
|-------5h=7--7--5h=7--7--5h=7--7--7p|==5--5--5h=7--7--7p=5--5-------|
|------10h12-12-10h12-12-10h12-12-12p|=10-10-10h12-12-12p10-10-------|
|-7----------------------------------|-------------------------0--0--|


  Q.    S  S  S  S  S  S  S  S  S  S    S  S  S  S  S  S  S  S  Q  Q
|------------------------------------|-------------------12h14-12-----|
|------------------------------------|-12h14-14-12h14-14-17h19-17-----|
|-------5h=7--7--5h=7--7--5h=7--7--7-|-17h19-19-17h19-19--------------|
|-2----12h14-14-12h14-14-12h14-14-14-|-----------------------------5--|


 Guitar Solo
  W          +H     S S S S S S E
|----------|----------------------|
|----------|----------------------|
|----------|----------------7-5-7-|
|-7--------|-(7)----5-7-5-7-------|

[ Tab from: http://www.guitartabs.cc/tabs/a/audioslave/drown_me_slowly_btab_ver_3.html ]
   15/8
    E. S S S E. S S S E E. S S S E E S S S E.  4x
||---------------------------------------------||
||o-------------------5-----------------------o||
||o----5-7-5----5-7-5------5-7-5---7-5-7-5----o||
||--2--------2----------2--------2---------5---||


 Bridge
 4/4
  W          +E  A E. E. E. E. E   E. H.      +S    +E  E. E. E. E. E
|----------|---------------------|----------------|-------------------|
|----------|---------------------|----------------|-------------------|
|----------|-----2s7--5----------|----------------|-----5--5----------|
|-2--------|-(2)---------9--7--5-|-7--2-------(2)-|-(2)-------9--7--5-|


    E. H.      +S    +E  A E. E. E. E. E
||-----------------|---------------------|
||o----------------|---------------------|
||o----------------|-----2s7--5----------|
||--7--2-------(2)-|-(2)---------9--7--5-|


  E. H.      +S    +E  E. E. E. E. E
|----------------|--------------------||
|----------------|-------------------o||
|----------------|-----5--5----------o||
|-7--2-------(2)-|-(2)-------9--7--5--||


  E. H.      +S    +E  A E. E. E. E. E
|----------------|---------------------|
|----------------|---------------------|
|----------------|-----2s7--5----------|
|-7--2-------(2)-|-(2)---------9--7--5-|


  E. E.  Q   +Q.      +E  E. E. E. E. E
|------------------|---------------------|
|------------------|---------------------|
|------------------|------5--5-----------|
|-7--9--10--(10)---|-(10)-------9--7--5--|


    E. H.      +S    +E  A E. E. E. E. E  3x E. H.      +S    W
||-----------------|----------------------||----------------|------|
||o----------------|---------------------o||----------------|------|
||o----------------|-----2s7--5----------o||----------------|-5----|
||--7--2-------(2)-|-(2)---------9--7--5--||-7--2-------(2)-|------|


   Chorus
   15/8
    E. S S S E. S S S E E. S S S E E S S S E.  3x
||---------------------------------------------||
||o-------------------5-----------------------o||
||o----5-7-5----5-7-5------5-7-5---7-5-7-5----o||
||--2--------2----------2--------2---------5---||


  E. S S S E. S S S E E. S S S E S S S S S S E
|-----------------------------------------------|
|-------------------5---------------------------|
|----5-7-5----5-7-5------5-7-5---7-7-7-7-7-7-7--|
|-2--------2----------2--------2----------------|


 Out-Chorus
 4/4
                                     |-3-|
  S S S S Q  S S S S Q    S S S S Q  Q Q Q
|-----------------------|------------------|
|-----------------------|------------------|
|---------7----------7--|---------7--------|
|-2-2-2-2----2-2-2-2----|-2-2-2-2----5-2-7-|


                                 |-3-|
    E E Q S S S S Q   S S S S Q  Q Q Q    3x
||------------------|---------------------||
||o-----------------|--------------------o||
||o-----7---------7-|---------7----------o||
||--2-2---2-2-2-2---|-2-2-2-2----5-2-7----||


  W
|------*|
|------*|
|------*|
|-2----*|


Duration Legend
---------------
W - whole; H - half; Q - quarter; E - 8th; S - 16th; T - 32nd; X - 64th; a - acciaccatura
+ - note tied to previous; . - note dotted; .. - note double dotted
Uncapitalized letters represent notes that are staccato (1/2 duration)
Irregular groupings are notated above the duration line
Duration letters will always appear directly above the note/fret number it represents the
duration for.  Duration letters with no fret number below them represent rests.  Multi-
bar rests are notated in the form Wxn, where n is the number of bars to rest for.  Low
melody durations appear below the staff

Tablature Legend
----------------
 h   - hammer-on
 p   - pull-off
 b   - bend
 pb  - pre-bend
 r   - bend release (if no number after the r, then release immediately)
 /  - slide into or out of (from/to "nowhere")
 s   - legato slide
 S   - shift slide
  - natural harmonic
[n]  - artificial harmonic
n(n) - tapped harmonic
 ~   - vibrato
 tr  - trill
 T   - tap
 TP  - trem. picking
 PM  - palm muting
n/  - tremolo bar dip; n = amount to dip
 n  - tremolo bar down
 n/  - tremolo bar up
/n  - tremolo bar inverted dip
 =   - hold bend; also acts as connecting device for hammers/pulls
 <>  - volume swell (louder/softer)
 x   - on rhythm slash represents muted slash
 o   - on rhythm slash represents single note slash

Misc Legend
-----------
 |  - bar
||  - double bar
||o - repeat start
o|| - repeat end
*|  - double bar (ending)
 :  - bar (freetime)
 $  - Segno
 &  - Coda
Tempo markers -  = BPM(8/16=s8/s16), where s8 = swing 8ths, s16 = swing 16ths


***************************************************************************************
* Generated using Power Tab Editor by Brad Larsen - http://powertab.guitarnetwork.org *
***************************************************************************************