Audioslave - Doesnt Remind Me Chords & Tabs

 

Doesnt Remind Me Chords & Tabs

Audioslave Chords & Tabs

Version: 1 Type: Tab 1 rating
1 star 2 stars 3 stars 4 stars 5 stars
comments

Doesnt Remind Me Tab

                         Audioslave - Doesn't Remind Me ©2005

       Lyrics written by Chris Cornell, Music written and arranged by Audioslave


Tom Morello (Guitar)
                                                       
E||-----------0-------------|-----0-------------------|
B||-----------0----------0--|-----2-----x-------------|
G||-----1-----1----1-----0--|-----2-----x----1-----1--|
D||-----2----------2--------|--2-----2--x----2-----2--|
A||--2-----2----------2-----|--0-----0--2-------2-----|
E||--0-----0----------0-----|-----------0-------0-----|


                                           I walk the streets of Japan. . .                                   
-----------0-------------|-----0-------------------|-----------0-------------|
-----------0----------0--|-----2-----x-------------|-----------0----------0--|
-----1-----1----1-----0--|-----2-----x----1-----1--|-----1-----1----1-----0--|
-----2----------2--------|--2-----2--x----2-----2--|-----2----------2--------|
--2-----2----------2-----|--0-----0--2-------2-----|--2-----2----------2-----|
--0-----0----------0-----|-----------0-------0-----|--0-----0----------0-----|


                                                                              
-----0-------------------|-----------0-------------|-----0-------------------|
-----2-----x-------------|-----------0----------0--|-----2-----x-------------|
-----2-----x----1-----1--|-----1-----1----1-----0--|-----2-----x----1-----1--|
--2-----2--x----2-----2--|-----2----------2--------|--2-----2--x----2-----2--|
--0-----0--2-------2-----|--2-----2----------2-----|--0-----0--2-------2-----|
-----------0-------0-----|--0-----0----------0-----|-----------0-------0-----|


                                                                              
-----------0-------------|-----0-------------------|-----------0-------------|
-----------0----------0--|-----2-----x-------------|-----------0----------0--|
-----1-----1----1-----0--|-----2-----x----1-----1--|-----1-----1----1-----0--|
-----2----------2--------|--2-----2--x----2-----2--|-----2----------2--------|
--2-----2----------2-----|--0-----0--2-------2-----|--2-----2----------2-----|
--0-----0----------0-----|-----------0-------0-----|--0-----0----------0-----|


                                                                              
-----0-------------------|-----------0-------------|-----0-------------------|
-----2-----x-------------|-----------0----------0--|-----2-----x-------------|
-----2-----x----1-----1--|-----1-----1----1-----0--|-----2-----x----1-----1--|
--2-----2--x----2-----2--|-----2----------2--------|--2-----2--x----2-----2--|
--0-----0--2-------2-----|--2-----2----------2-----|--0-----0--2-------2-----|
-----------0-------0-----|--0-----0----------0-----|-----------0-------0-----|


                                                                              
-----------0-------------|-----0-------------------|-----------0-------------|
-----------0----------0--|-----2-----x-------------|-----------0----------0--|
-----1-----1----1-----0--|-----2-----x----1-----1--|-----1-----1----1-----0--|
-----2----------2--------|--2-----2--x----2-----2--|-----2----------2--------|
--2-----2----------2-----|--0-----0--2-------2-----|--2-----2----------2-----|
--0-----0----------0-----|-----------0-------0-----|--0-----0----------0-----|


                                                                            
-----0-------------------|-----------0-------------|-----0-----0----0------|
-----2-----x-------------|-----------0----------0--|-----2-----0----0------|
-----2-----x----1-----1--|-----1-----1----1-----0--|-----2-----1----1------|
--2-----2--x----2-----2--|-----2----------2--------|--2-----2--2----2------|
--0-----0--2-------2-----|--2-----2----------2-----|--0-----0--2----2------|
-----------0-------0-----|--0-----0----------0-----|-----------0----0------|


                                                                            
------------------------|-------------------------|------------------------|
------------------------|-------------------------|------------------------|
--1----1--1--6----6--6--|--6--6--4--1----1--1--1--|--1----1--1--6----6--6--|
--2----2--2--7----7--7--|--7--7--5--2----2--2--2--|--2----2--2--7----7--7--|
--2----2--2--7----7--7--|--7--7--5--2----2--2--2--|--2----2--2--7----7--7--|
--0----0--0--5----5--5--|--5--5--3--0----0--0--0--|--0----0--0--5----5--5--|


                                                                             
-------------------------|------------------------|-------------------------|
-------------------------|------------------------|-------------------------|
--6--6--4--1----1--1--1--|--1----1--1--6----6--6--|--6--6--4--1----1--1--1--|
--7--7--5--2----2--2--2--|--2----2--2--7----7--7--|--7--7--5--2----2--2--2--|
--7--7--5--2----2--2--2--|--2----2--2--7----7--7--|--7--7--5--2----2--2--2--|
--5--5--3--0----0--0--0--|--0----0--0--5----5--5--|--5--5--3--0----0--0--0--|


                                                                       
------------------------|-------------------|-----------0-------------|
-------------2----2--2--|--2----------------|-----------0----------0--|
--1----1--1--2----2--2--|--2----------------|-----1-----1----1-----0--|
--2----2--2--2----2--2--|--2----------------|-----2----------2--------|
--2----2--2--0----0--0--|--0----------------|--2-----2----------2-----|
--0----0--0-------------|-------------------|--0-----0----------0-----|


                                                                              
-----0-------------------|-----------0-------------|-----0-------------------|
-----2-----x-------------|-----------0----------0--|-----2-----x-------------|
-----2-----x----1-----1--|-----1-----1----1-----0--|-----2-----x----1-----1--|
--2-----2--x----2-----2--|-----2----------2--------|--2-----2--x----2-----2--|
--0-----0--2-------2-----|--2-----2----------2-----|--0-----0--2-------2-----|
-----------0-------0-----|--0-----0----------0-----|-----------0-------0-----|


                                                                              
-----------0-------------|-----0-------------------|-----------0-------------|
-----------0----------0--|-----2-----x-------------|-----------0----------0--|
-----1-----1----1-----0--|-----2-----x----1-----1--|-----1-----1----1-----0--|
-----2----------2--------|--2-----2--x----2-----2--|-----2----------2--------|
--2-----2----------2-----|--0-----0--2-------2-----|--2-----2----------2-----|
--0-----0----------0-----|-----------0-------0-----|--0-----0----------0-----|


                                                                              
-----0-------------------|-----------0-------------|-----0-------------------|
-----2-----x-------------|-----------0----------0--|-----2-----x-------------|
-----2-----x----1-----1--|-----1-----1----1-----0--|-----2-----x----1-----1--|
--2-----2--x----2-----2--|-----2----------2--------|--2-----2--x----2-----2--|
--0-----0--2-------2-----|--2-----2----------2-----|--0-----0--2-------2-----|
-----------0-------0-----|--0-----0----------0-----|-----------0-------0-----|


                                                                              
-----------0-------------|-----0-------------------|-----------0-------------|
-----------0----------0--|-----2-----x-------------|-----------0----------0--|
-----1-----1----1-----0--|-----2-----x----1-----1--|-----1-----1----1-----0--|
-----2----------2--------|--2-----2--x----2-----2--|-----2----------2--------|
--2-----2----------2-----|--0-----0--2-------2-----|--2-----2----------2-----|
--0-----0----------0-----|-----------0-------0-----|--0-----0----------0-----|


                                                                              
-----0-------------------|-----------0-------------|-----0-------------------|
-----2-----x-------------|-----------0----------0--|-----2-----x-------------|
-----2-----x----1-----1--|-----1-----1----1-----0--|-----2-----x----1-----1--|
--2-----2--x----2-----2--|-----2----------2--------|--2-----2--x----2-----2--|
--0-----0--2-------2-----|--2-----2----------2-----|--0-----0--2-------2-----|
-----------0-------0-----|--0-----0----------0-----|-----------0-------0-----|


                                                                              
-----------0-------------|-----0-------------------|-----------0-------------|
-----------0----------0--|-----2-----x-------------|-----------0----------0--|
-----1-----1----1-----0--|-----2-----x----1-----1--|-----1-----1----1-----0--|
-----2----------2--------|--2-----2--x----2-----2--|-----2----------2--------|
--2-----2----------2-----|--0-----0--2-------2-----|--2-----2----------2-----|
--0-----0----------0-----|-----------0-------0-----|--0-----0----------0-----|


                                                                           
-----0-----0----0------|------------------------|-------------------------|
-----2-----0----0------|------------------------|-------------------------|
-----2-----1----1------|--1----1--1--6----6--6--|--6--6--4--1----1--1--1--|
--2-----2--2----2------|--2----2--2--7----7--7--|--7--7--5--2----2--2--2--|
--0-----0--2----2------|--2----2--2--7----7--7--|--7--7--5--2----2--2--2--|
-----------0----0------|--0----0--0--5----5--5--|--5--5--3--0----0--0--0--|

[ Tab from: http://www.guitartabs.cc/tabs/a/audioslave/doesnt_remind_me_tab.html ]
                                                                            
------------------------|-------------------------|------------------------|
------------------------|-------------------------|------------------------|
--1----1--1--6----6--6--|--6--6--4--1----1--1--1--|--1----1--1--6----6--6--|
--2----2--2--7----7--7--|--7--7--5--2----2--2--2--|--2----2--2--7----7--7--|
--2----2--2--7----7--7--|--7--7--5--2----2--2--2--|--2----2--2--7----7--7--|
--0----0--0--5----5--5--|--5--5--3--0----0--0--0--|--0----0--0--5----5--5--|


                                                                       
-------------------------|------------------------|-------------------|
-------------------------|-------------2----2--2--|--2----------------|
--6--6--4--1----1--1--1--|--1----1--1--2----2--2--|--2----------------|
--7--7--5--2----2--2--2--|--2----2--2--2----2--2--|--2----------------|
--7--7--5--2----2--2--2--|--2----2--2--0----0--0--|--0----------------|
--5--5--3--0----0--0--0--|--0----0--0-------------|-------------------|


                                                                             
--5-----------5-----5--|--5-----------5-----5--|----------------------------|
--6-----------6-----6--|--6-----------6-----6--|--8-------------8-------8---|
--7-----------7-----7--|--7-----------7-----7--|--9-------------9-------9---|
--7------7-------7-----|--7------7-------7-----|--10------------10------10--|
--5------5-------5-----|--5------5-------5-----|--10------10--------10------|
-----------------------|-----------------------|--8-------8---------8-------|


                                                                             
----------------------------|-----------------------|-----------------------|
--8-------------8-------8---|--5-----------5-----5--|--5-----------5-----5--|
--9-------------9-------9---|--5-----------5-----5--|--5-----------5-----5--|
--10------------10------10--|--7-----------7-----7--|--7-----------7-----7--|
--10------10--------10------|--7------7-------7-----|--7------7-------7-----|
--8-------8---------8-------|--5------5-------5-----|--5------5-------5-----|


                                                                        
-----------------------|-----------------------|--5-----------5-----5--|
--3-----------3-----3--|--0-----------0-----0--|--6-----------6-----6--|
--4-----------4-----4--|--1-----------1-----1--|--7-----------7-----7--|
--5-----------5-----5--|--2-----------2-----2--|--7------7-------7-----|
--5------5-------5-----|--2------2-------2-----|--5------5-------5-----|
--3------3-------3-----|--0------0-------0-----|-----------------------|


                                                     
--5-----------5-----5--|----------------------------|
--6-----------6-----6--|--8-------------8-------8---|
--7-----------7-----7--|--9-------------9-------9---|
--7------7-------7-----|--10------------10------10--|
--5------5-------5-----|--10------10--------10------|
-----------------------|--8-------8---------8-------|


                                                                             
----------------------------|-----------------------|-----------------------|
--8-------------8-------8---|--5-----------5-----5--|--5-----------5-----5--|
--9-------------9-------9---|--5-----------5-----5--|--5-----------5-----5--|
--10------------10------10--|--7-----------7-----7--|--7-----------7-----7--|
--10------10--------10------|--7------7-------7-----|--7------7-------7-----|
--8-------8---------8-------|--5------5-------5-----|--5------5-------5-----|


                    (Guitar Solo Not Included)                                            
-------------------|--------------------------|------------------|
--3----------------|--10b---10b---10b---10b---|------------------|
--4----------------|--------------------------|------------------|
--5----------------|--------------------------|------------------|
--5----------------|--------------------------|------------------|
--3----------------|--------------------------|------------------|


                                                                            
------------------|------------------|------------------|------------------|
------------------|------------------|------------------|------------------|
------------------|------------------|------------------|------------------|
------------------|------------------|------------------|------------------|
------------------|------------------|------------------|------------------|
------------------|------------------|------------------|------------------|


                                                                            
------------------|------------------|------------------|------------------|
------------------|------------------|------------------|------------------|
------------------|------------------|------------------|------------------|
------------------|------------------|------------------|------------------|
------------------|------------------|------------------|------------------|
------------------|------------------|------------------|------------------|


                                                                            
------------------|------------------|------------------|------------------|
------------------|------------------|------------------|------------------|
------------------|------------------|------------------|------------------|
------------------|------------------|------------------|------------------|
------------------|------------------|------------------|------------------|
------------------|------------------|------------------|------------------|


                                                         
------------------|------------------|------------------|
------------------|------------------|------------------|
------------------|------------------|------------------|
------------------|------------------|------------------|
------------------|------------------|------------------|
------------------|------------------|------------------|


                                                                            
------------------------|-------------------------|------------------------|
------------------------|-------------------------|------------------------|
--1----1--1--6----6--6--|--6--6--4--1----1--1--1--|--1----1--1--6----6--6--|
--2----2--2--7----7--7--|--7--7--5--2----2--2--2--|--2----2--2--7----7--7--|
--2----2--2--7----7--7--|--7--7--5--2----2--2--2--|--2----2--2--7----7--7--|
--0----0--0--5----5--5--|--5--5--3--0----0--0--0--|--0----0--0--5----5--5--|


                                                                             
-------------------------|------------------------|-------------------------|
-------------------------|------------------------|-------------------------|
--6--6--4--1----1--1--1--|--1----1--1--6----6--6--|--6--6--4--1----1--1--1--|
--7--7--5--2----2--2--2--|--2----2--2--7----7--7--|--7--7--5--2----2--2--2--|
--7--7--5--2----2--2--2--|--2----2--2--7----7--7--|--7--7--5--2----2--2--2--|
--5--5--3--0----0--0--0--|--0----0--0--5----5--5--|--5--5--3--0----0--0--0--|


                                                                       
------------------------|-------------------|-----------0-------------|
-------------2----2--2--|--2----------------|-----------0----------0--|
--1----1--1--2----2--2--|--2----------------|-----1-----1----1-----0--|
--2----2--2--2----2--2--|--2----------------|-----2----------2--------|
--2----2--2--0----0--0--|--0----------------|--2-----2----------2-----|
--0----0--0-------------|-------------------|--0-----0----------0-----|


                                                                              
-----0-------------------|-----------0-------------|-----0-------------------|
-----2-----x-------------|-----------0----------0--|-----2-----x-------------|
-----2-----x----1-----1--|-----1-----1----1-----0--|-----2-----x----1-----1--|
--2-----2--x----2-----2--|-----2----------2--------|--2-----2--x----2-----2--|
--0-----0--2-------2-----|--2-----2----------2-----|--0-----0--2-------2-----|
-----------0-------0-----|--0-----0----------0-----|-----------0-------0-----|


                                                                             
-----------0-------------|-----0-------------------|-----------0------------|
-----------0----------0--|-----2-----x-------------|-----------0------------|
-----1-----1----1-----0--|-----2-----x----1-----1--|-----1-----1----1-------|
-----2----------2--------|--2-----2--x----2-----2--|-----2----------2-------|
--2-----2----------2-----|--0-----0--2-------2-----|--2-----2----------2----|
--0-----0----------0-----|-----------0-------0-----|--0-----0----------0----|


                                                                              
------------0------|------------------|------------------|------------------||
------------0------|------------------|------------------|------------------||
------------1------|------------------|------------------|------------------||
------------2------|------------------|------------------|------------------||
------------2------|------------------|------------------|------------------||
------------0------|------------------|------------------|------------------||

Tab taken from http://www.mysongbook.com
Comments