Audioslave - Bring Em Back Alive Chords & Tabs

 

Bring Em Back Alive Chords & Tabs

Audioslave Chords & Tabs

Version: 2 Type: Tab 0 ratings
1 star 2 stars 3 stars 4 stars 5 stars
comments

Bring Em Back Alive Tab

   
A mate sent this in an email to me, i know he didn't do it but
i thought it was too good not to share....

Dropped B Tuning (Low to High): B A D G B E


 h   = hammer on
 p   = pull off
(H)  = harmonic
 \   = slide
 x   = strike muted strings
/\/  = sustain
P.M. = Palm Mute


Intro Guitar:

-|-------------------------------|-------------------------------|-
-|---13\12---12---12---12---12---|12-12p10---10---10---10---10---|-
-|--------9----9----9----9----9--|--------9----9----9----9----9--|-
-|-------------------------------|-------------------------------|-
-|-------------------------------|-------------------------------|-
-|-------------------------------|-------------------------------|-


-|-------------------------------|-------------------------------|-
-|10-10p8----8----8----8----8----|8-8\7------7----7----7----7----|-
-|-------9----9----9----9----9---|--------9----9----9----9----9--|-
-|-------------------------------|-------------------------------|-
-|-------------------------------|-------------------------------|-
-|-------------------------------|-------------------------------|-

{------------------------   play 2 times   ----------------------}



Intro Bass:
(tune top Bass string down to B)

               /\/\        /\/\/\
-|-------------------------------||------------
-|-------------------------------||------------
-|-------------------------------||------------
-|-0-12-0-9h10-0---6-0-5-0-3-----||------------
                                 X4 (play 4 times, then rest for 4 measures)              




Pre-Chorus:

-|------0---0---0---0----0--||------------------------------------------------
-|--7\5---5---5---5---5-----||------------------------------------------------
-|--------------------------||------------------------------------------------
-|--------------------------||------------------------------------------------
-|--------------------------||------------------------------------------------
-|--------------------------||------------------------------------------------
   "Oh - ooo - oh -oh - oh" x4

Chorus #1:
                /\/\         /\/\                 /\/\         /\/\
-|---------------------------------|----------------------------------||--
-|---------------------------------|----------------------------------||--
-|---------------------------------|----------------------------------||--
-|---------------------------------|----------------------------------||--
-|---------------------------------|----------------------------------||--
-|-0--12-0-9h10-0---6-0-5--5-3-----|-0--12-0-9h10-0---6-0-5--3h5------||--
                                                                      x4
[ Tab from: http://www.guitartabs.cc/tabs/a/audioslave/bring_em_back_alive_tab_ver_2.html ]
Verse Riff:
                           /\/\/\
-|--------------------------------||---------------------------------------
-|--------------------------------||---------------------------------------
-|--------------------------------||---------------------------------------
-|--------------------------------||---------------------------------------
-|---------1------0---------------||---------------------------------------
-|--5-3-xx---5-xx---5-xxx-8-------||---------------------------------------
  P.M......................       x12


Verse Riff on Bass:
                        /\/\/\
-|-----------------------------||------------
-|--------8-----7-------5------||------------
-|--7-5-----7-----7------------||------------
-|-----------------------------||------------




Riff Variation before Solo:

           /\/\        /\/  /\/\
-|------------------------------||---------
-|------------------------------||---------
-|------------------------------||---------
-|------------------------------||---------
-|------------------------------||---------
-|-3-5-6-3h5---3-5-6-3h5--3h5---||---------
 

Solo: 
                                       \/ = inflection w/ whammy bar OR slide guitar
-|-----------------------------------------------------------------||---------
-|---15  15--------------------------------------------------------||---------
-|-----\/------16  16----------------------------------------------||---------
-|---------------\/-----16  16----9  9-----------------------------||---------
-|------------------------\/-------\/------------------------------||---------
-|-----------------------------------------------------------------||---------
                                                                   x3

Solo: 
                             bend 2-1/2 steps #         
-|----------------------------/------------------------------------||---------
-|---15  15------------------/-------------------------------------||---------
-|-----\/-------16  16------/--------------------------------------||---------
-|----------------\/-------7---------------------------------------||---------
-|-----------------------------------------------------------------||---------
-|-----------------------------------------------------------------||---------

Solo:
                                                   whole step #
-|-------------------------------------------------/\--------------||---------
-|--18-18-18-18-18-18-18-18-18-18-18-18-18-18-18-18  18------------||---------
-|-----------------------------------------------------------------||---------
-|-----------------------------------------------------------------||---------
-|-----------------------------------------------------------------||---------
-|-----------------------------------------------------------------||---------



   
Break after Solo:
                                                     /\/\/
-|--------------------------------------------------------||--
-|--------------------------------------------------------||--
-|--------------------------------------------------------||--
-|--------------------------------------------------(H)---||--
-|-7------7------7------7------7------7------7-------7----||--
-|---5-xx---5-xx---5-xx---5-xx---5-xx---5-xx---5-xxx------||--
 P.M................................................      x4

           Just like hea - thens...
Comments