Audioslave - Bring Em Back Alive Chords & Tabs

 

Bring Em Back Alive Chords & Tabs

Audioslave Chords & Tabs

Version: 1 Type: Bass Tab 0 ratings
1 star 2 stars 3 stars 4 stars 5 stars
comments

Bring Em Back Alive Bass Tab

   
Audioslave - Bring Em Back Alive

Tabbed By Stephen Pang (piequat@hotmail.com)

Intro
G|-----------------------------|
D|----9---7h8------------------|
A|----------------8---7--------|
E|-7----7------7----7----7-10--|

G|-----------------|
D|-----------------|
A|-----------------|
E|-0-0-0-0-0-0-0-0-|

Chorus
G|----------------------------|----------------------------|
D|----9---7h8-----------------|----7---6h7-----------------|
A|----------------8---7----5--|-5----5-----5-7-8---7--5-7--|
E|-7----7------7----7----7----|------------------7---------|
[ Tab from: http://www.guitartabs.cc/tabs/a/audioslave/bring_em_back_alive_btab.html ]
G|----------------------------|
D|----------------------------|
A|-5-7-8---7--5-7-8---7--5-7--|  (ending to last 2 choruses)
E|-------7----------7---------|

Verse
G|---------------------------|
D|--------8------7--------5--|
A|-7-5--x---7--x---7--x-x----|
E|---------------------------|

Pre-Solo
G|-----------------|
D|-----------------|
A|-----------------|
E|-7-7-7-7-7-7-7-7-|

Solo
G|-----------------------------|
D|-9-7-9------9-7-9-----9-7-9--|
A|-------7-8-------------------|
E|------------------10---------|

G|-----------------------------|
D|---7-9--------7-9-------7-9--|
A|-9-----7-8--9---------9------|
E|------------------10---------|

After Solo
G|------------|
D|------------|
A|------------|
E|-0-0--------|

G|-----------------|
D|-----------------|
A|-----------------|
E|-0-0-0-0-0-0-0-0-|
Comments