Audioslave - Black Hole Sun Chords & Tabs

 

Black Hole Sun Chords & Tabs

Audioslave Chords & Tabs

Version: 1 Type: Tab 1 rating
1 star 2 stars 3 stars 4 stars 5 stars
comments

Black Hole Sun Tab

This is how chris plays it live acoustically now that he’s with audioslave. It’s a bit different than how soundgarden played it. I know it’s correct because I’ve not only seen it up close live, I also have it on video.
Check out the live in Cuba DVD to see how he plays it.

Drop D tuning

Intro:

	e :---------------------|---------------------------------| 
	B :---------------------|---------------------------------| 
	G :------5--------------|----5--------------------5-------| 
	D :----5-----5----------|--5------------------3-------3---| 
	A :--5---------5--------|5----------------3-------------3-| 
	D :5--------------5---8-|--------8------3-----------------| 
 

	e :-----------------------|--------------------|----------|
	B :-----------------------|--------------------|----------|
	G :-----------4-----------|----1---------------|----2-----|
	D :---------2-------------|--1-----1-----------|--0-------|
	A :-------2---------------|1-----------1-------|3---------|
	D :0---2------------0---1-|--------------1---0-|----------|

Verse:
   
	e :---------------------|---------------------------------| 
	B :---------------------|---------------------------------| 
	G :------5--------------|----5--------------------5-------| 
	D :----5-----5----------|--5------------------3-------3---| 
	A :--5---------5--------|5----------------3-------------3-| 
	D :5--------------5---8-|---------------3-----------------| 
 

	e :-----------------------|--------------------|-----------|
	B :-----------------------|--------------------|-----------|
	G :-----------4-----------|----1---------------|----2------|
	D :---------2-------------|--1-----1-----------|--0---0---0|           
	A :-------2---------------|1-----------1-------|3-------3--|
	D :0---2------------0---1-|--------------1---0-|-----------|


	e :-----------------------|--------------------|
	B :-----------------------|--------------------|
	G :-----------------------|--------------------|            X2
	D :------5---------3------|------6-------------|
	A :----5----5----3---3----|----6---------------|
	D :--5---------3----------|--6-----------------|


Chorus:
[ Tab from: http://www.guitartabs.cc/tabs/a/audioslave/black_hole_sun_tab.html ]
	e :------------------|----------------|----------------|----------------| 
	B :------------------|----------------|----------------|-------3--------| 
	G :-------1----------|-----2----------|----------------|-----3-----3----| 
	D :-----1-----1------|---0-----0------|-----5-------5--|---3---------3--| 
	A :---1---------1----|-3---------3----|---5-------5----|-1-------------1| 
	D :-1------------1-0-|-------------0--|-5-----5-3-----3|----------------| 


	E :----------------|-----------------|------------------------|
	B :----------------|-----------------|------------------------|
	G :-------1--------|------2----------|------------------------|
	D :-----1-----1----|----0-----0---0--|-5--5--5-0-3--3-3--0----|
	A :---1---------1--|--3---------3----|-5--5--5-0-3--3-3--0----|
	D :-1-------------1|0----------------|-5--5--5-0-3--3-3--0----|



	E :----------------|-----------------|------------------------|
	B :----------------|-----------------|------------------------|
	G :-------1--------|------2----------|------------------------|
	D :-----1-----1----|----0-----0---0--|-5--5--5-0-3------------|
	A :---1---------1--|--3---------3----|-5--5--5-0-3------------|
	D :-1-------------1|0----------------|-5--5--5-0-3------------|

bridge:

                         
	E :--------------------|-2--2--2-2-------|
	B :--------------------|-3--3--3-3-------|
	G :--------------------|-2--2--2-2-------|
	D :-3--3--3-0-1--1—-1-0|-0--0--0-0-------|  X4
	A :-3--3--3-0-1--1—-1-0|-----------------|
	D :-3--3--3-0-1--1—-1-0|-----------------|


Solo:


	e :------------------------------|      -------| 
	B :------------------------------| X4   -------|
	G :------------------------------|      -------|
	D :-----------------------3--3-3-| then -3/5-5-| 
	A :-3-2-0--2/3------------3--3-3-|      -3/5-5-| 
	D :-------------5-4---3---3--3-3-|      -3/5-5-| 



	e :---------------------|---------------------------------| 
	B :---------------------|---------------------------------| 
	G :------5--------------|----5--------------------5-------| 
	D :----5-----5----------|--5------------------3-------3---| 
	A :--5---------5--------|5----------------3-------------3-| 
	D :5--------------5---8-|---------------3-----------------| 
 
      
	e :-----------------------|
	B :-----------------------|
	G :-----------4-----------|
	D :---------2-------------|
	A :-------2---------------|
	D :--0—-2-----------------|

Then repeat chorus followed by bridge.
Finish with:
	e :------------------------------|-------| 
	B :------------------------------|-------|
	G :------------------------------|-------|
	D :-----------------------3--3-3-|-3/5-5-| 
	A :-3-2-0--2/3------------3--3-3-|-3/5-5-| 
	D :-------------5-4---3---3--3-3-|-3/5-5-|

 im not sure about those chords, check out some other tabs for some better ones if ya want.


 


Comments