Audio Karate - Senior Year Chords & Tabs

 

Senior Year Chords & Tabs

Audio Karate Chords & Tabs

Version: 1 Type: Tab 0 ratings
1 star 2 stars 3 stars 4 stars 5 stars
comments

Senior Year Tab

   
-------------------------------------------------------------------------------
			     Senior Year - Audio Karate
-------------------------------------------------------------------------------

Album: Space Camp
Year: 2002

Tabbed by: Zach - Eddie_Scissors
Email:ambientnoise821@yahoo.com

This is only the leads, but the rhythm part is easy to figure out anyway. Rate it well, 
this is only my second tab. There's also alot of repetition during the verse, but that's 
I've tabbed the solo to make up for not having the rhythm parts. Enjoy!

Tuning: Standard


Intro (x2)
E|------------------------------------------------------------------|
e|------------------------------------------------------------------|
B|------------------------------------------------------------------|
G|-5-5--12-12--1010--9-9-9--10-12---5-5--12-12--10-10--9-9-9--10-7--|
D|-x-x--x--x---x-x---x-x-x--x--x----x-x--x--x---x--x---x-x-x--x--x--|
A|-3-3--10-10--8-8---7-7-7--8--10---3-3--10-10--8--8---7-7-7--8--5--|
E|------------------------------------------------------------------|
   "Yeah, yeah, yeah..."

e|------------------------------------------------------------------|
B|------------------------------------------------------------------|
G|-5-5--12-12--1010--9-9-9--10-12---5-5--12-12--10-10--9-9-9--10-7--|
D|-x-x--x--x---x-x---x-x-x--x--x----x-x--x--x---x--x---x-x-x--x--x--|
A|-3-3--10-10--8-8---7-7-7--8--10---3-3--10-10--8--8---7-7-7--8--5--|
E|------------------------------------------------------------------|
   2nd time around, end with a pickscratch.

Verse (x1)
e|-------------------------------------------|
B|-------------------------------------------|
G|-5*---2*-------------------12-12-12--10-9--|
D|-5----2----3*--55555555----x--x--x---x--x--|
A|-3----0----3---55555555----10-10-10--8--7--|
E|-----------1---33333333--------------------|
                 ........

"Well it's Friday night..."

e|----------------------------------|
B|----------------------------------|
G|-5*---2*--------------------------|
D|-5----2----3*---5555555555555555--|
A|-3----0----3----5555555555555555--|
E|-----------1----3333333333333333--|
   "Life is just ten yards away..."


Verse Pt. 2 (x2)
e|------------------------------------------------------------------|
B|------------------------------------------------------------------|
G|-5-5--12-12--1010--9-9-9--10-12---5-5--12-12--10-10--9-9-9--10-7--|
D|-x-x--x--x---x-x---x-x-x--x--x----x-x--x--x---x--x---x-x-x--x--x--|
A|-3-3--10-10--8-8---7-7-7--8--10---3-3--10-10--8--8---7-7-7--8--5--|
E|------------------------------------------------------------------|
   "You're alone and scrambling..."
   "And no one seems to understand..."

e|------------------------------------------------------------------|
B|------------------------------------------------------------------|
G|-5-5--12-12--1010--9-9-9--10-12---5-5--12-12--10-10--9-9-9--10-7--|
D|-x-x--x--x---x-x---x-x-x--x--x----x-x--x--x---x--x---x-x-x--x--x--|
A|-3-3--10-10--8-8---7-7-7--8--10---3-3--10-10--8--8---7-7-7--8--5--|
E|------------------------------------------------------------------|
  "I'm right beside you..."
  "And when you don't know me..."


Chorus (x2)
e|--------------------------------------------------------------------|
B|--------------------------------------------------------------------|
G|-5-5-5-5--10-10-10--9-9-9--7-/-9---5-5-5-5--10-10-10--9-9-9--7-/-9--|
D|-x-x-x-x--x--x--x---x-x-x--x-/-x---x-x-x-x--x--x--x---x-x-x--x-/-x--|
A|-3-3-3-3--8--8--8---7-7-7--5-/-7---3-3-3-3--8--8--8---7-7-7--5-/-7--|
E|--------------------------------------------------------------------|
   "And maybe you don't wanna say..."
   "Yeah, tired and bleeding..."

e|------------------------------------------------------------|
B|------------------------------------------------------------|
G|-5-5-5-5--10-10-10--9-9-9--7-/-9---5-5-5-5--10\-9-/-10/-12--|
D|-x-x-x-x--x--x--x---x-x-x--x-/-x---x-x-x-x--x-\-x-/-x-/-x---|
A|-3-3-3-3--8--8--8---7-7-7--5-/-7---3-3-3-3--8-\-7-/-8-/-10--|
E|------------------------------------------------------------|
[ Tab from: http://www.guitartabs.cc/tabs/a/audio_karate/senior_year_tab.html ]
Post-Chorus Pt. 1
e|-----------------------------------------------------------------------|
B|-----------------------------------------------------------------------|
G|-12-12-12-12--14-14-14-14--10101010-12-12-12-12--9-9-9-9--12-12-12-12--|
D|-x--x--x--x---x--x--x--x---x-x-x-x--x--x--x--x---x-x-x-x--x--x--x--x---|
A|-10-10-10-10--12-12-12-12--8-8-8-8--10-10-10-10--7-7-7-7--10-10-10-10--|
E|-----------------------------------------------------------------------|
   "Don't they...."

e|--------------------------------------------------------------------------------------|
B|--------------------------------------------------------------------------------------|
G|-77777-/-9-\-7------------------------------------------------------------------------|
D|-xxxxx-/-x-\-x------------------------------------------------------------------------|
A|-55555-/-7-\-5------------------------------------------------------------------------|
E|--------------------------------------------------------------------------------------|
             "Let's go!"

Post-Chorus Pt. 2
e|------------------------------------------------------------------|
B|------------------------------------------------------------------|
G|-5-5-5-5--12-12-12--101010--9-9---4-4-4-4--12-12-12--101010--9-9--|
D|-x-x-x-x--x--x--x---x-x-x---x-x---x-x-x-x--x--x--x---x-x-x---x-x--|
A|-3-3-3-3--10-10-10--8-8-8---7-7---2-2-2-2--10-10-10--8-8-8---7-7--|
E|------------------------------------------------------------------|

e|---------------------------------------------------------------|
B|---------------------------------------------------------------|
G|-101010-9-9-9--7-7---101010-9-9-9--7-7---12-14-10-12-9-10-7-9--|
D|-x-x-x--x-x-x--x-x---x-x-x--x-x-x--x-x---x--x--x--x--x-x--x-x--|
A|-8-8-8--7-7-7--5-5---8-8-8--7-7-7--5-5---10-12-8--10-7-8--5-7--|
E|---------------------------------------------------------------|
                                                        "Yeah, yeah, yeah..."

e|--------------------------------------|
B|--------------------------------------|
G|-17-xWhatever--10-10-10-10---10-9--7--|
D|-x-------------x--x--x--x----x--x--x--|
A|-15------------8--8--8--8----8--7--5--|
E|--------------------------------------|

Chorus x2


Buildup (Play a variation of these chords, the pattern isn't shown.)
e|------------------------------------------------------------------------------|
B|------------------------------------------------------------------------------|
G|-10-------12-12-12--12--12-12-12---12-/-14---10--------10--12-12-12-12--------|
D|-x--------x--x--x---x---x--x--x----x--/-x----x---------x---x--x--x--x------5--|
A|-8--------10-10-10--10--10-10-10---10-/-12---8---------8---10-10-10-10-----5--|
E|---------------------------------------------------------------------------3--|
  "Don't they..."

Solo (x2)
e|------------------------------------------------|
B|------------------------------------------------|
G|-9h10p9---9-10-12-10-9---9h10p9---9-10-12-10-9--|
D|-------10----------------------10---------------|
A|------------------------------------------------|
E|------------------------------------------------|

e|------------------------------------------------|
B|------------------------------------------------|
G|-9h10p9---9-10-12-10-9---9h10p9---9-10-12-10-9--|
D|-------9-----------------------9----------------|
A|------------------------------------------------|
E|------------------------------------------------|

e|----------------------------------------------------------|
B|----------------------------------------------------------|
G|-5h7p5--5-7-9-7-5---5h7p5--5-7-9-7-5---5555-5h7p5-5-4444--|
D|------6------------------6--------------------------------|
A|----------------------------------------------------------|
E|----------------------------------------------------------|


Outro (x2)
e|----------------------------------)---------------------------------|
B|----------------------------------)---------------------------------|
G|-5-5--12-12--10-10--9-9-9--10--12-)-------13-13-13-13--12-12-12-12--|
D|-x-x--x--x---x--x---x-x-x--x---x--)-x3----x--x--x--x---x--x--x--x---|
A|-3-3--10-10--8--8---7-7-7--8---10-)-------11-11-11-11--10-10-10-10--|
E|----------------------------------)---------------------------------|
   "And if I could just..."

Ending
e|------------------------------------------------------------------------------------|
B|------------------------------------------------------------------------------------|
G|-5*---------17-17x------------------------------------------------------------------|
D|-5----------x--x-x------------------------------------------------------------------|
A|-3----------15-15x------------------------------------------------------------------|
E|------------------------------------------------------------------------------------|
        "Yeah, yeah, yeah."

| /  slide up
| \  slide down
| h  hammer-on
| p  pull-off
| ~  vibrato
| +  harmonic
| x  Mute note
===============================================================================
Comments