Audio Karate - Betrayed Chords & Tabs

 

Betrayed Chords & Tabs

Audio Karate Chords & Tabs

Version: 1 Type: Tab 0 ratings
1 star 2 stars 3 stars 4 stars 5 stars
comments

Betrayed Tab

Betyrayed


Intro

Guitar One


e|---0-----------------0---------------------------------------------------------|
B|-----3-2-0---0-2p0-----3-2-0---0-2-----0h2p0-------0h2p0---------------0-------|
G|-2---------2-------2---------2-------2-------2---2-------2-----1---2-------2p1-|
D|-----------------------------------4-----------4-----------2-2---2---2---2-----| 
A|-------------------------------------------------------------------------------|
E|-------------------------------------------------------------------------------|


e|-----0-----------------------------------------------|
B|---3---3-2---2-3-2-0-----0h2p0---------------0-------|
G|-2---------2-----------2-------2-----1---2-------2p1-|
D|-0---------0---------4-----------2-2---2---2---2-----| 
A|-----------------------------------------------------|
E|-----------------------------------------------------|

RIFF I

Guitar one
e|------------2-------|
B|--0----3----2-------|
G|--2----2----2-------|
D|--2----0----4----2--|
A|--0----0----4----2--|
E|------------2----0--|

RIFF II

Guitar one and Guitar two

e|------------2-------|
B|--0----0----2-------|
G|--3----2----2-------|
D|--2----2----4----2--|
A|-------0----4----2--|
E|------------2----0--|



Intro 

Guitar two

e|------------2---------|
B|--0-2--3-3--2---------|
G|--2-2--2-2--2-2----1--|
D|--2----0----4-4--2-2--|
A|--0----0----4----2----|
E|------------2----0----|

AND/OR

e|-------------------------------------------------------------------------------------------------------|
B|--2---2---2---2---2---2---2---2----3---3---3---3---3---3---3---3---------------------------------------|
G|----2---2---2---2---2---2---2---2----2---2---2---2---2---2---2---2----2---2---2---2---2---2---2---2----|
D|------------------------------------------------------------------------4---4---4---4---4---4---4---4--|
A|-------------------------------------------------------------------------------------------------------|
E|-------------------------------------------------------------------------------------------------------|
[ Tab from: http://www.guitartabs.cc/tabs/a/audio_karate/betrayed_tab.html ]
e|-----------------------------------|
B|-----------------------------------|
G|--1---1---1---1---1---1---1---1----|
D|----2---2---2---2---2---2---2---2--|
A|-----------------------------------|
E|-----------------------------------|


e|-------------------------------------------------------------------------------------------|
B|--3---3---3---3---2---2---2---2------------------------------------------------------------|
G|----2---2---2---2---2---2---2---2---2---2---2---2---2---2---2---2---1---1---1---1---4---1--|
D|--------------------------------------4---4---4---4---4---4---4---4---2---2---2---2---2-2--|
A|-------------------------------------------------------------------------------------------|
E|-------------------------------------------------------------------------------------------|


RIFF I

Guitar two

e|--------------------|
B|--------------------|
G|-------7------------|
D|--7----x----4-------|
A|--x----5----x----2--|
E|--5---------2----0--|


SOLO one- Guitar two

e|-------------------------------[2]-----------------------------------------------|
B|-------------------------------[t]----------------5------------------------------|
G|----9-9-7-7-6-6-------------6-6[i]----------4-4-6---4h6p4------------------------|
D|--7-------------9-9-7-7-9-9----[m]--4-4-7-7---------------7-----6---7---9---7-6--|
A|-------------------------------[e]--------------------------7-7---7---7---7---7--|
E|-------------------------------[s]-----------------------------------------------|

SOLO two- Guitar one

e|-------------------------------[2]-----------------------------------------------|
B|-------------------------------[t]----------------5------------------------------|
G|----9-9-7-7-6-6-------------6-6[i]----------4-4-6---4h6p4------------------------|
D|--7-------------9-9-7-7-9-9----[m]--4-4-7-7---------------7-----6---7---9---7-6--|
A|-------------------------------[e]--------------------------7-7---7---7---7---7--|
E|-------------------------------[s]-----------------------------------------------|

SOLO two- Guitar two

e|--------------------|
B|--------------------|
G|--6----9----7-------|
D|--7----7----7----6--|
A|-----------------7--|
E|--------------------|

Comments