Audio Adrenaline - Im Not The King Chords & Tabs

 

Im Not The King Chords & Tabs

Audio Adrenaline Chords & Tabs

Version: 4 Type: Tab 0 ratings
1 star 2 stars 3 stars 4 stars 5 stars
comments

Im Not The King Tab

   
-------------------------------------------------------------------------------
		      I'M NOT THE KING - Audio Adrenaline              
-------------------------------------------------------------------------------

Tabbed by: mmm.skittles.
Email: slinkyslide@hotmail.com

Tuning: Standard

| /  slide up
| \  slide down
| h  hammer-on
| p  pull-off
| b  bend
| ~  vibrato
| x  Mute note
| *  Palm-muted note

hello everybody. this is how i play I'm Not The King. It's not completely right
since there are two guitars in the actual song and i tabbed this for one guitar,
but it's close enough. i guess. 

Intro
e|--------------------------|                 e|--------------|
B|--------------------------|                 B|--------------|
G|--------------------------|                 G|--------------|
D|--------------------------|  play 5x, then  D|--------------|
A|-----5h7-7----------------|                 A|--------------|
E|-0-0-------0-0-0-0-3-0-3--|                 E|-0-0-0-3-0-3--|
             * * * * * *                         * * * * *

Verse
e|----------0------------------------------------------|
B|----3--------0---------------------------------------|
G|-1--------------3------------------------------------|
D|------------------------(x4) then---------5----------|
A|-------------------------------------x--7---7--4--5--|
E|-----------------------------------------------------|

Chorus
*play intro*
I'm not the king, i just sing yeah
*intro*
i'm just a fraction of a thing yeah:
 
e|-------------------------------------|
B|-------------------------------------|
G|-------------------------------------|
D|-------------------------------------|
A|-----5h7-7-------------------5h7-7---|
E|-0-0-------0-0-0-0-3-0-3-0-0---------|
             * * * * * *                        

Chorus #2
e|-----------------------------------------------|
B|-----------------------------------------------|
G|-----------------------------------------------|
D|-----4-5-6-7777777777777--4-5-6-7777777777777--|
A|-----4-5-6-7777777777777--4-5-6-7777777777777--|
E|--x--2-3-4-5555555555555--2-3-4-5555555555555--|

e|---------------------------------|
B|---------------------------------|
G|---------------------------------|
D|--5-4-3-2---8-8-8-9-----8-8-8-9--|
A|--5-4-3-2---7-7-7-7-----7-7-7-7--|
E|--3-2-1-0-0-0-0-0-0-0-0-0-0-0-0--|
[ Tab from: http://www.guitartabs.cc/tabs/a/audio_adrenaline/im_not_the_king_tab_ver_4.html ]
play Verse again
*play intro*
2nd Chorus
I'm not the king, i just sing yeah:
e|-------------------------------------10----------|
B|--------8-------8h10-8-------8-------10h12p10-8--|
G|--7h9-9-9-7-9-9-9----9-7h9-9-9-7-9-9-------------|
D|-------------------------------------------------|
A|-------------------------------------------------|
E|-------------------------------------------------|

I'm just a fraction of a thing yeah:
e|--xx-xx-xx-----------------------------------------------------------------|
B|--xx-xx-xx--------8-------8h10-8-------8-8---------------------------------|
G|--xx-xx-xx--7h9-9-9-7-9-9-9----9-7h9-9-9---9\\-----------------------------|
D|---------------------------------------------------------------------------|
A|---------------------------------------------------------------------------|
E|---------------------------------------------------------------------------|

Play Chorus #2 several times and then it's time for the SOLO!!

e|------------10-10b12~-10--------------------------10-10b12~-10----15/17-15~|
B|------11b12--------------11b12~-10----------11b12--------------12----------|
G|-/12~------------------------------12-9-12~--------------------------------|
D|---------------------------------------------------------------------------|
A|---------------------------------------------------------------------------|
E|---------------------------------------------------------------------------|

e|----------10-10b12~-10-----------------------------------------------------|
B|----11b12--------------11~-10---------------11b12-10-----------------------|
G|-12---------------------------12h14p12-9-12----------12h14p12-9------------|
D|---------------------------------------------------------------------------|
A|---------------------------------------------------------------------------|
E|---------------------------------------------------------------------------|

e|---------------------------------------------------------------------------|
B|----8-8-----8-8------------------------------------------------------------|
G|-99-9-9-9p7-9-9-9\---------------------------------------------------------|
D|--------------------------5------------------------------------------------|
A|-------------------/5-5-7--------------------------------------------------|
E|---------------------------------------------------------------------------|

then play the chorus a few more times, then turn the intro into an outro and
you're done! yaay it's over
===============================================================================
Comments