Audio Adrenaline - Im Not The King Chords & Tabs

 

Im Not The King Chords & Tabs

Audio Adrenaline Chords & Tabs

Version: 3 Type: Tab 0 ratings
1 star 2 stars 3 stars 4 stars 5 stars
comments

Im Not The King Tab

this is the whoooooooooole effin tab of audio adrenalines im not the king

standard tuning
                       
                                  INTRO/VERSE
e-------------------------------------------------------------------------------
B-------------------------------------------------------------------------------
G-------------------------------------------------------------------------------
D-------------------------------------------------------------------------------
A------5h7-7-------------------5h7-----------------5h7-7------------------------
E--0-0---------x-x-x-x-x-3-0-0-----x-x-x-x-x-3-0-0-------x-x-x-x-x-3-x-x-x-x-x-3
                                     
                                    CHORUS

e-------------------------------------------------------------------------------
B-------------------------------------------------------------------------------
G--------2-2-2-2-2-2-x-x-2-2-2-2-------2-2-2-2-2-2-2-x-x-2-2-2-2----------------
D--------1-1-1-1-1-1-x-x-1-1-1-1-------1-1-1-1-1-1-1-x-x-1-1-1-1----------------
A--------0-0-0-0-0-0-x-x-0-0-0-0-------0-0-0-0-0-0-0-x-x-0-0-0-0----------------
E--2-3-4-------------------------2-3-4------------------------------------------
[ Tab from: http://www.guitartabs.cc/tabs/a/audio_adrenaline/im_not_the_king_tab_ver_3.html ]
e-------------------------------------------------------------------------------
B-------------------------------------------------------------------------------
G-------------------------------------------------------------------------------
D----------8-8-8-8-x-x-8-8-8-8----------8-8-8-8-x-x-8-8-8-8---------------------
A----------7-7-7-7-x-x-7-7-7-7----------7-7-7-7-x-x-8-8-8-8---------------------
E--4-3-2-0-0-0-0-0-x-x-0-0-0-0--4-3-2-0-0-0-0-0-x-x-0-0-0-0---------------------

                                     FILL

e----------------------------bend-----------------------------------------------
B------8------8-8------8------10--9---------------------------------------------
G--7h9-7--7-9-7-7--7h9-7--7-9--9------------------------------------------------
D-------------------------------------------------------------------------------
A-------------------------------------------------------------------------------
E-------------------------------------------------------------------------------

                                     SOLO
                                            slight bend 
e-----------12-------------------------12-------15-------15---------------------
B--------15----15-------------------15----15-12---------------------------------
G--12-14----------15-14-12----12-14---------------------------------------repeat
D--------------------------14-----------------------------------------------once
A-------------------------------------------------------------------------------
E-------------------------------------------------------------------------------


that is pretty much it so go out and play this for your friends and show
em how good you are
Comments