Audio Adrenaline - Im Not The King Chords & Tabs

 

Im Not The King Chords & Tabs

Audio Adrenaline Chords & Tabs

Version: 1 Type: Tab 0 ratings
1 star 2 stars 3 stars 4 stars 5 stars
comments

Im Not The King Tab

I'm not the King
Audio Adrenaline
Submitted by Canaan Montgomery


Fill 1
|------------------------------|  Play this five times at the begining 
|------------------------------|
|------------------------------|
|------------------------------|
|--------5--7-7----------------|
|--0-0-----------0-0-0-3-0-3---|

E---F#7
E---F#7
E---F#7
E---F#7

Fill 1

Chorus 
|--------5-------------------|    Play twice
|--------5-------------------| 
|--------6-------------------|
|--------7-------------------|
|--------7-------------------|
|--2-3-4-5-------------------|

|----------------------------|
|----------------------------|
|------------9--9--9--9------|
|------------9--9--9--9------|
|------------7--7--7--7------|
|--5-3-2---------------------|

solo
[ Tab from: http://www.guitartabs.cc/tabs/a/audio_adrenaline/im_not_the_king_tab.html ]
|--------------12------------------|
|------12--15-----15--12-----------|
|--12---------------------14--12---|
|--------------------------------14|
|----------------------------------|
|----------------------------------|


|--------------12---------15--15---|
|------12--15-----15--12-----------|
|--12------------------------------|
|----------------------------------|
|----------------------------------|
|----------------------------------|


|--------------12------------------------|
|------12--15-----15--12-----------------|
|--12---------------------14--12---14----|
|--------------------------------------14|
|----------------------------------------|
|----------------------------------------|


|--------------------------------------------------------------|
|-------12-----------------------------------------------------|
|----12----12--14--12--------------12--------------12--12------|
|----------------------14--14--14----------14--14------------14|
|--------------------------------------------------------------|
|--------------------------------------------------------------|

Fill 1 and then chorus


thats some of it. listen to the cd and it will make since. lata.-canaan

Comments