Audio Adrenaline - Hands And Feet Chords & Tabs

 

Hands And Feet Chords & Tabs

Audio Adrenaline Chords & Tabs

Version: 1 Type: Tab 0 ratings
1 star 2 stars 3 stars 4 stars 5 stars
comments

Hands And Feet Tab

   
Title: Hands & Feet
Artist: Audio Adrenaline
Album: Underdog

Intro: clean

  D
|-2-2-2-2h3p2---------|
|--3-3-3-----3--------| 
|---------------------| 
|---------------------|
|---------------------|
|---------------------|


 Em  D   Asus    A      X4
|-0--2-0--------------|
|-0------3-3-3-3-2----|
|-0------2-2-2-2-2----|
|-2------2-2-2-2-2----|
|-2-------------------|
|-0-------------------|

fill: w/ distortion   X2
|---------------------|
|---------------------|
|---------------------|
|---------------------|
|-0-0-5/10\9-10-5-----|
|---------------------|

Verses: w/ distortion
Bm G
|---------------------|
|---------------------|
|---4-----------------|
|---------------------|
|-2-------------------|
|-----0-2-3-----------|


  D    G    Asus       X3
|---2----3----0-------|
|--3-3--0-0--3-3------|
|-2----0----2---------|
|---------------------|
|---------------------|
|---------------------|
[ Tab from: http://www.guitartabs.cc/tabs/a/audio_adrenaline/hands_and_feet_tab.html ]
Em Asus
|---------0-----------|
|--------3-3----------|
|---0---2-------------|
|--2-2----------------|
|-2-------------------|
|---------------------|

chorus:                X8
|-2-2-2-2h3p2---------|
|--3-3-3-----3*-------|
|---------------------|
|---------------------|
|---------------------|
|---------------------|

D Asus G
|-2-0--------2---0--3-|
|-----4p2-0--3---3--0-|
|------------2---2--0-|
|------------0---2--0-|
|------------0---0--2-|
|------------0---0--3-|

D Asus
|-2-0-------0-0-0-0-0-|
|-----------3-3-3-3-3-|
|-----------2-2-2-2-2-|
|-----------2-2-2-2-2-|
|-----------0-0-0-0-0-|
|-----------0-0-0-0-0-|

repeat fill
verse 2
chorus
bridge: play 2x ~ = let ring

distorted
|---------------------------------------------------------|
|---------------------------------------------------------|
|---------------------------------------------------------|
|---------------------------------------------------------|
|-0-0-0-0-0-0-0-0---------------0-0-0-0-0-0-0-0-----------|
|----------------3-3-3-3-3-3-3-3---------------3-3-3-3-3-3|

intro riff 4x (while singing "hands, hands, hands, hands, feet, feet, feet, feet")
chorus
intro riff 16x (while singing "I will go,I will go")
Comments