Audio Adrenaline - Chevette Chords & Tabs

 

Chevette Chords & Tabs

Audio Adrenaline Chords & Tabs

Version: 1 Type: Bass Tab 0 ratings
1 star 2 stars 3 stars 4 stars 5 stars
comments

Chevette Bass Tab

   
Chevette
Audio Adrenaline
from Some Kind Of Zombie
tabbed by Jared Gardner
hansolo@integrityonline10.com

~~~~~~~~~~
~ drop-D ~
~~~~~~~~~~

intro
G|-------------------------------------|
D|-------------------------------------|
A|-------------------------------------|
D|--0---0/7---7\0---0/7---7\0---0/7----|

main riff . . .this is the little tune
that's played through most of the song
G|-------------------------------------|
D|-------------------------------------|
A|-------------------------------------|
D|--0--0--5--7-0-7\5---0--0--5--7-0-7\5|

prechorus - "No AC . . ." part
G|-------------------------------------
D|-------------------------------------
A|-------------------------------------
D|--3-3-3-3-3-3-3-3--5-5-5-5-5-5-5-5---

---------------------------------------|
---------------------------------------|
---------------------------------------|
--3-3-3-3--5-3--6-4--7-7-5-5-3---------|

chorus riff 1         chorus riff 2
G|-------------------|-----------------|
D|-------------------|-----------------|
A|-------------------|-----------5-----|
D|--0--0--5--7-7-7/--|--0--0--0--------|
[ Tab from: http://www.guitartabs.cc/tabs/a/audio_adrenaline/chevette_btab.html ]
bridge
G|-------------------------------------
D|--7-9/7------------------------------
A|-------------------------------------
D|---------0--0--7-7-7--0--0--7-7-7----

---------------------------------------|
---------------------------------------|
---------------------------------------|
--0--0--7-7-7--0--0--7-7-7-------------|

guitar solo
G|-------------------------------------
D|-------------------------------------
A|-------------------------------------
D|--3-3-3-3-3-3-3-3--5-5-5-5-5-5-5-5---

---------------------------------------
---------------------------------------
-------------------3-3-3-3-3-3-3-3-----
--7-7-7-7-7-7-7-7----------------------

---------------------------------------
---------------------------------------
---------------------------------------
--3-3-3-3-3-3-3-3--5-5-5-5-5-5-5-5-----

---------------------------------------|
---------------------------------------|
--3-3-3-3-3-3-3-3--1-1-1-1-1-1-1-1-----|
---------------------------------------|

there's the first part, here's the 
playing order . . . 

intro - 1x
main riff - 24x
prechorus - 1x
chorus 1 - 4x
chorus 2 - 1x
main riff - 8x
prechorus - 1x
chorus 1 - 8x
chorus 2 - 1x
bridge - 1x
solo riff - 1x
chorus 1 - 16x

well, that's it, i guess . . . have fun

Comments