Attaque 77 - Setentistas Chords & Tabs

 

Setentistas Chords & Tabs

Attaque 77 Chords & Tabs

Version: 1 Type: Tab 0 ratings
1 star 2 stars 3 stars 4 stars 5 stars
comments

Setentistas Tab

   
ATAME: Attaque 77/Setentistas   


ARTISTA: ATTAQUE 77
SONG: SETENTISTAS
TABBED BY: FNS! FRANCO SAAVEDRA (CBA/ARG)
MAIL: FNS_FRANCO@HOTMAIL.COM
TUNING: STANDARD



SETENTISTAS:

(PALM MUTE)

  E5              B5       C#5     -*PALM MUTE
'Hasta que no te pase a vos, no vas a entender, 
  A5  -*PALM MUTE
siempre así, tan egoista         
  E5              B5       C#5 -*PALM MUTE 
Hasta que no te pase a vos, no vas a entender,   
  A5              B5 -X SIN PALM MUTE!
clásico individualista                         


(SIN PALM MUTE)
  A5              E5        B5     
Decido que no te quiero escuchar,
  A5              E5        B5
decido no formar parte en tu plan.


  E5              B5        C#5
Cuantos ríos de sangre han de correr,
                 A5
tanta muerte ya, tanto horror, tanta injusticia
  E5    (SLIDE CON PUA) B5        C#5
Cuanto tiempo para reconocer que la historia es,
  A5              B5
otra vez y todo de vuelta.


  A5              E        B
Deciles que no les sirve luchar,
  A5              E        B
decime que me sirve luchar...




E5               C#5             B5    A5   G#5-A5 x5
Si estaba en el cordobazo hace tiempo atrás
E5               C#5             B5    A5-B5
Si estaba en el rosariazo y en Tucumán
E5               C#5         B5
Espíritu setentista vuelve hoy,
                   A5
gente que no puede decir:
      E5           B5
Hey, hey, no te metás

F#5           B5
En Neuquén resiste Zanón
F#5           B5
Lucha obrera, movilización
A5            B5                     E5
Los bastones acechan, también vos y yo.


GUITARRA 1 EN EL SOLO: 
 
 E5 E5      A5  E5  A5  C#5  B5  A5  B5


GUITARRA 2 EN EL SOLO:
     E5
E |-----------------------------------------------------|
B |------12---10--9-------------------------------------|
G |--9-9----9---------11--9-----------------------------|
D |-----------------------------------------------------|
A |-----------------------------------------------------|
E |-----------------------------------------------------|
[ Tab from: http://www.guitartabs.cc/tabs/a/attaque_77/setentistas_tab.html ]
     E5
E |-----------------------------------------------------|
B |------12---10--9-------------------------------------|
G |--9-9----9---------11--9-9---------------------------|
D |-----------------------------------------------------|
A |-----------------------------------------------------|
E |-----------------------------------------------------|
     
     A5                         E5                 A5
E |-----------------------------------------------------|
B |--9h10---------9--10h12---10v--9---------------------|
G |--9h----9v---9--------------------9v---------9-------|
D |--------------------------------------9-9h11----11v--|
A |-----------------------------------------------------|
E |-----------------------------------------------------|

       C#5           B5           
E |-----------------------------------------------------|
B |---------------------14p12---------------------------|
G |------9--11--11/13----------13p11-11v----------------|
D |--11-------------------------------------------------|
A |-----------------------------------------------------|
E |-----------------------------------------------------|

       A5                  B5
E |-----------------------------------------------------|
B |---12h14--14--14p12----------------------------------|
G |---------------------13--11v-------------------------|
D |-----------------------------------------------------|
A |-----------------------------------------------------|
E |-----------------------------------------------------|


CERCA DEL FINAL: (2:45 Minutos)

E |--------------------------|
B |------------12--------12--|  X Varias veces
G |--9-8-9-9-9-----9-9-9-----|
D |--------------------------|
A |--------------------------|
E |--------------------------|



//ACORDES// GUITARRA 1/

      A    E    B   C#5  G#5 F#5
E |-----------------------------------------------------|
B |--------9----4---6-----------------------------------|
G |--------9----4---6-----------------------------------|
D |---7----7----2---4----6---4--------------------------|
A |---7------------------6---4--------------------------|
E |---5------------------4---2--------------------------|


//ACORDES// GUITARRA 2/

      A    E    B   C#5   G#5   F#5
E |-----------------------------------------------------|
B |-------------4----6----------------------------------|
G |---2---------4----6----------------------------------|
D |---2----2----2----4----6----4------------------------|
A |---0----2--------------6----4------------------------|
E |--------0--------------4----2------------------------|


......
TABBED BY: FNS! FRANCO SAAVEDRA (CBA/ARG)
MAIL: FNS_FRANCO@HOTMAIL.COM

buenoo..thats all!! eso es todoooo.
Este tab esta dedicado al mi banda  
STRATOS:
YO..Franco saavedra (guitarra), 
Ezequiel saavedra (guitarra y voz)
Martin saavedra(bateria)
Nahuel fassi (bajo y coros).

Aguante green day y good charlotte.

y todo el punk rock!!
Comments