Atreyu - Tulips Are Better Chords & Tabs

 

Tulips Are Better Chords & Tabs

Atreyu Chords & Tabs

Version: 1 Type: Tab 0 ratings
1 star 2 stars 3 stars 4 stars 5 stars
comments

Tulips Are Better Tab

                  
                  
                     TULIPS ARE BETTER - ATREYU

Tuning: Drop C
[ Tab from: http://www.guitartabs.cc/tabs/a/atreyu/tulips_are_better_tab.html ]
c|--------------------------------------------|
A|--------------------------------------------|
F|-------4-------4-------4-------4------------|
C|----2-2-2-2-2-2-2-2-2-2-2-2-2-2-2--2--------|
G|---3-3---3-3-3---3-0-0---0-0-0----0---------|
C|--------------------------------------------|
And you repeat that as many times as it is. Or you can also play it in standard tuning like this:

e|--------------------------------------------|
B|--------------------------------------------|
G|-------2-------2-------2-------2------------|
D|----0-0-0-0-0-0-0-0-0-0-0-0-0-0-0-0---------|
A|---1-1---1-1-1---1--------------------------|
E|-------------------3-3---3-3-3---3----------|
and repeat that as many times as it is.
have fun! ATREYU ROCKS!
Comments