Atreyu - This Flesh Is A Tomb Chords & Tabs

 

This Flesh Is A Tomb Chords & Tabs

Atreyu Chords & Tabs

Version: 1 Type: Tab 0 ratings
1 star 2 stars 3 stars 4 stars 5 stars
comments

This Flesh Is A Tomb Tab

   
Band-Atreyu
Song-This Flesh is a Tomb
Album-The Curse
Tuning-C*(C,G,C,F,A,D)

|Key|
~-Ring
*-Scrape
/-Slide

Intro
D|-----------------|
A|-----------------|
F|-----------------|
C|7-7-7-7-7-7-7-7--|
G|4-4-4-4-4-4-4-4--|
C|4-4-4-4-4-4-4-4--|

Verse
D|------------------------------------------------------------|
A|------------------------------------------------------------|
F|------------------------------------------------------------|
C|4-4-4-4-4-4-4-4--4-4--4-4-4-4-4-4-4-4-4-4-4-4--4-4--4-4-4-4-|
G|4-4-4-4-4-4-4-4--4-4--4-4-4-4-4-4-4-4-4-4-4-4--4-4--4-4-4-4-|
C|4-4-4-4-4-4-4-4--4-4--4-4-4-4-4-4-4-4-4-4-4-4--4-4--4-4-4-4-|

D|-------------------------------------------------------------------|
A|-------------------------------------------------------------------|
F|1111111111111111-1111-11111111-9-9-9-9-9-9-9-9--14-14--14-14-14-14-|
C|-------------------------------------------------------------------|
G|-9-9-9-9-9-9-9-9--9-9--9-9-9-9-7-7-7-7-7-7-7-7--12-12--12-12-12-12-|
C|-------------------------------------------------------------------|

D|-----------------------------------------------------------|
A|-----------------------------------------------------------|
F|-----------------------------------------------------------|
C|--------------------------------------------------------0~-|
G|----4-------------4-------------0-------------0---------0~-|
C|-044-4-xxxxxxx0-44-4-xxxxxxx0-00-0-xxxxxxx0-00-0-xxxxxxx0~-|

D|----------------------------------------------------------|
A|----10-9------10-9------10-9------10-9-------12-10-9-10~--|
F|-6---------6---------6---------6---------6----------------|
C|----------------------------------------------------------|
G|----------------------------------------------------------|
C|----------------------------------------------------------|
[ Tab from: http://www.guitartabs.cc/tabs/a/atreyu/this_flesh_is_a_tomb_tab.html ]
D|----------------------------------------------------------------------|
A|----------------------------------------------------------------------|
F|-------------------------------------2~----------------------------2~-|
C|************4-4--2-2--4-4--7-7---0-0-0~---4-4--2-2--4-4--9-9---0-0-0~-|
G|************4-4--2-2--4-4--7-7---0-0-0~---4-4--2-2--4-4--9-9---0-0-0~-|
C|------------4-4--2-2--4-4--7-7---0-0-0~---4-4--2-2--4-4--9-9---0-0-0~-|

D|-----------------------------------------------|
A|-----------------------------------------------|
F|-------------------------2~--------------------|
C|-4-4--2-2--4-4--7-7--0-0-0~----2-2-2-2-2-2-2-2-|
G|-4-4--2-2--4-4--7-7--0-0-0~----2-2-2-2-2-2-2-2-|
C|-4-4--2-2--4-4--7-7--0-0-0~----2-2-2-2-2-2-2-2-|

Verse
Chorus

D|-------------------------------------------------------|
A|-------------------------------------------------------|
F|-------7~----6~----6/5--5/6~----9/6~----7~----6----6/5-|
C|-4~----------------------------------------------------|
G|-4~----5~----4~----4/3--3/4~----7/4~----5~----4----4/3-|
C|-4~----------------------------------------------------|

Huge pick scrape slide kinda thing

D|-----------------------------------------------------------------|
A|-----------------------------------------------------------------|
F|-----------------------------------------------------------------|
C|-0-0-0-0-0-0-0-0-2-2-2-2-2-2-2-2-4-4-4-4-4-4-4-4-2-2-2-2-2-2-2-2-|
G|-0-0-0-0-0-0-0-0-2-2-2-2-2-2-2-2-4-4-4-4-4-4-4-4-2-2-2-2-2-2-2-2-|
C|-0-0-0-0-0-0-0-0-2-2-2-2-2-2-2-2-4-4-4-4-4-4-4-4-2-2-2-2-2-2-2-2-|

D|-------------------------------------------------------------------------|
A|-------------------------------------------------------------------------|
F|-11-11-11-11-11-11-11-11-13-13-13-13-13-13-14-13-9-9-9-9-9-9-9-9-7-7-6-6-|
C|-------------------------------------------------------------------------|
G|-9--9--9--9--9--9--9--9--11-11-11-11-11-11-12-11-7-7-7-7-7-7-7-7-5-5-4-4-|
C|-------------------------------------------------------------------------|

D|------|
A|------|
F|------|
C|--0~--
G|--0~--
C|--0~--

By Jordan Nordberg~
NOTE(mini yoyo)
Comments