Atreyu - This Flesh A Tomb Chords & Tabs

 

This Flesh A Tomb Chords & Tabs

Atreyu Chords & Tabs

Version: 1 Type: Tab 0 ratings
1 star 2 stars 3 stars 4 stars 5 stars
comments

This Flesh A Tomb Tab

   
THIS FLESH A TOMB
As recorded by Atreyu
(From the 2004 Album THE CURSE)
Words and Music by Atreyu
Arranged by Atreyu

Gtr I (C G C F A D) - 'Untitled'
Gtr II (C G C F A D) - 'Untitled'
Gtr III (C G C F A D) - 'Untitled'
Gtr IV (C G C F A D) - 'Untitled'
Gtr V (C G C F A D) - 'Untitled'

 Intro
  Fast Rock Q=192
  F#m
 4/4
  Gtr I
|-----------------|---------------------------||
|-----------------|---------------------------||
|-----------------|---------------------------||
|-7-7-7-7-7-7-7-7-|-7-7-7-7-7-7-7-7-7-7-7-7-7-||
|-4-4-4-4-4-4-4-4-|-4-4-4-4-4-4-4-4-4-4-4-4-4-||
|-4-4-4-4-4-4-4-4-|-4-4-4-4-4-4-4-4-4-4-4-4-4-||


   Verse
    $
    F#m                        D5      F#m                        D5
    Gtrs I, II
||------------------|----------------|-----------------|----------------|
||o-----------------|----------------|-----------------|----------------|
||------------------|----------------|-----------------|----------------|
||--7-7-7-7-7-7-7-7-|--7-7-7-7-7-7-7-|-7-7-7-7-7-7-7-7-|--7-7-7-7-7-7-7-|
||o-4-4-4-4-4-4-4-4-|--4-4-4-4-0-0-0-|-4-4-4-4-4-4-4-4-|--4-4-4-4-0-0-0-|
||--4-4-4-4-4-4-4-4-|--4-4-4-4-0-0-0-|-4-4-4-4-4-4-4-4-|--4-4-4-4-0-0-0-|


  1.
  N.C.
|-------------------------|-----------------------|
|-------------------------|-----------------------|
|-11-11-11-11-11-11-11-11-|--11-11-11-11-11-11-11-|
|--x--x--x--x--x--x--x--x-|---x--x--x--x--x--x--x-|
|--9--9--9--9--9--9--9--9-|---9--9--9--9--9--9--9-|
|-------------------------|-----------------------|


|-----------------|-------------------------||
|-----------------|------------------------o||
|-9-9-9-9-9-9-9-9-|--14-14-14-14-14-14-14---||
|-x-x-x-x-x-x-x-x-|---x--x--x--x--x--x--x---||
|-7-7-7-7-7-7-7-7-|--12-12-12-12-12-12-12--o||
|-----------------|-------------------------||


  2.
  N.C.
  Gtr I
|-------------------------|-----------------------|
|-------------------------|-----------------------|
|--7--7--7--7--7--7--7--7-|---7--7--7--7--7--7--7-|
|--x--x--x--x--x--x--x--x-|---x--x--x--x--x--x--x-|
|--5--5--5--5--5--5--5--5-|---5--5--5--5--5--5--5-|
|-------------------------|-----------------------|
|
| Gtr II
|-------------------------|-----------------------|
|-------------------------|-----------------------|
|-11-11-11-11-11-11-11-11-|--11-11-11-11-11-11-11-|
|--x--x--x--x--x--x--x--x-|---x--x--x--x--x--x--x-|
|--9--9--9--9--9--9--9--9-|---9--9--9--9--9--9--9-|
|-------------------------|-----------------------|


|-----------------|------------------------||
|-----------------|------------------------||
|-5-5-5-5-5-5-5-5-|--10-10-10-10-10-10-10--||
|-x-x-x-x-x-x-x-x-|---x--x--x--x--x--x--x--||
|-3-3-3-3-3-3-3-3-|---8--8--8--8--8--8--8--||
|-----------------|------------------------||
|
|-----------------|------------------------||
|-----------------|------------------------||
|-9-9-9-9-9-9-9-9-|--14-14-14-14-14-14-14--||
|-x-x-x-x-x-x-x-x-|---x--x--x--x--x--x--x--||
|-7-7-7-7-7-7-7-7-|--12-12-12-12-12-12-12--||
|-----------------|------------------------||


   Pre-Chorus
    N.C.                  F#5             N.C.                  F#5
    Gtrs I, II
                          PM----------|                         PM----------|
||------------------|-------------------|-----------------|-------------------|
||o-----------------|-------------------|-----------------|-------------------|
||------------------|-------------------|-----------------|-------------------|
||------------------|-------------------|-----------------|-------------------|
||o-------4h7p4-----|-----4-4-4-4-4-4-4-|-------4h7p4-----|-----4-4-4-4-4-4-4-|
||--4h7p4-------7-4-|-(4)-4-4-4-4-4-4-4-|-4h7p4-------7-4-|-(4)-4-4-4-4-4-4-4-|


  1.
  N.C.                   D5
  Gtr I
                         PM-----------|
|------------------|--------------------|
|------------------|--------------------|
|------------------|--------------------|
|------------------|--------------------|
|-------4h=7p4-----|-----0--0-0-0-0-0-0-|
|-0h7p0--------7-0-|-(0)-0--0-0-0-0-0-0-|
|
| Gtr II
|------------------|--------------------|
|---------10-9-----|-------10-9---------|
|---x-6-x------x-x-|--6--x------x-x-6-x-|
|------------------|--------------------|
|------------------|--------------------|
|------------------|--------------------|


  N.C.                    D5
                          PM-----------|
|-------------------|----------------------||
|-------------------|---------------------o||
|-------------------|----------------------||
|-------------------|----------------------||
|--------4h7p4------|-----0-0-0--0-0-0-0--o||
|--0h7p0--------7-0-|-(0)-0-0-0--0-0-0-0---||
|
|-------------------|----------------------||
|-10-9---------10-9-|-----------10-9------o||
|------x-x-6-x------|--x--x-6-x------6-----||
|-------------------|----------------------||
|-------------------|---------------------o||
|-------------------|----------------------||


  2.
  N.C.                   D5
                         PM-----------|
|------------------|--------------------|
|------------------|--------------------|
|------------------|--------------------|
|------------------|--------------------|
|-------4h=7p4-----|-----0--0-0-0-0-0-0-|
|-0h7p0--------7-0-|-(0)-0--0-0-0-0-0-0-|
|
|------------------|--------------------|
|---------10-9-----|-------10-9---------|
|---x-6-x------x-x-|--6--x------x-x-6-x-|
|------------------|--------------------|
|------------------|--------------------|
|------------------|--------------------|


  N.C.                    D5    E5      D5
|-------------------|-----------------------||
|-------------------|-----------------------||
|-------------------|-----------------------||
|-------------------|-----0-0-0--2--2-2--0--||
|--------4h7p4------|-----0-0-0--2--2-2--0--||
|--0h7p0--------7-0-|-(0)-0-0-0--2--2-2--0--||
|
|-------------------|-----------------------||
|-10-9---------10-9-|-----------12-10-9-10--||
|------x-x-6-x------|--x--x-6-x-------------||
|-------------------|-----------------------||
|-------------------|-----------------------||
|-------------------|-----------------------||


 Chorus
  D5                            F#5
|-------------|-------------------|
|-------------|-------------------|
|-------------|-------------------|
|--(0)--------|-(0)-----------x-4-|
|--(0)--------|-(0)-----------x-4-|
|--(0)--------|-(0)-----------x-4-|
|
|               Gtr III       Gtr I
|                TPTPTPTPTPTP
|-------------|-------------------|
|-(10)--------|-------------------|
|-------------|-------------------|
|-------------|--xSxSxSxSxSx\-x-4-|
|-------------|--xSxSxSxSxSx\-x-4-|
|-------------|--xSxSxSxSxSx\-x-4-|


          E5        F#5         A5        D5
                                          PM|
|---------------------|-----------------------|
|---------------------|-----------------------|
|---------------------|-----------------------|
|-(4)-4-x-2-(2)-2-x-4-|-(4)-4-x-7-(7)-7-7-----|
|-(4)-4-x-2-(2)-2-x-4-|-(4)-4-x-7-(7)-7-7-0-0-|
|-(4)-4-x-2-(2)-2-x-4-|-(4)-4-x-7-(7)-7-7-0-0-|
|
|I
|                                         PM|
|---------------------|-----------------------|
|---------------------|-----------------------|
|---------------------|-----------------------|
|-(4)-4-x-2-(2)-2-x-4-|-(4)-4-x-7-(7)-7-7-----|
|-(4)-4-x-2-(2)-2-x-4-|-(4)-4-x-7-(7)-7-7-0-0-|
|-(4)-4-x-2-(2)-2-x-4-|-(4)-4-x-7-(7)-7-7-0-0-|


  D5                     F#5         E5        F#5         B5        D5
  Gtrs I, II
  PM|                                                                PM|
|------------|-------------|---------------------|-----------------------|
|------------|-------------|---------------------|-----------------------|
|-----7------|-(7)---------|---------------------|-----------------------|
|-----0------|-(0)-------4-|-(4)-4-x-2-(2)-2-x-4-|-(4)-4-x-9-(9)-9-9-----|
|-0-0-0------|-(0)-------4-|-(4)-4-x-2-(2)-2-x-4-|-(4)-4-x-9-(9)-9-9-0-0-|
|-0-0-0------|-(0)-------4-|-(4)-4-x-2-(2)-2-x-4-|-(4)-4-x-9-(9)-9-9-0-0-|


  D5                     F#5         E5        F#5         A5        D5
  PM|                                                                PM|
|------------|-------------|---------------------|-----------------------|
|------------|-------------|---------------------|-----------------------|
|-----7------|-(7)---------|---------------------|-----------------------|
|-----0------|-(0)-------4-|-(4)-4-x-2-(2)-2-x-4-|-(4)-4-x-7-(7)-7-7-----|
|-0-0-0------|-(0)-------4-|-(4)-4-x-2-(2)-2-x-4-|-(4)-4-x-7-(7)-7-7-0-0-|
|-0-0-0------|-(0)-------4-|-(4)-4-x-2-(2)-2-x-4-|-(4)-4-x-7-(7)-7-7-0-0-|


                                               D.S.
  D5                     E5
  PM|
|------------|-------------|------------|--------------||
|------------|-------------|------------|--------------||
|-----7------|-(7)---------|------------|--------------||
|-----0------|-(0)-------2-|-(2)--------|-2--2--2--2---||
|-0-0-0------|-(0)-------2-|-(2)--------|-2--2--2--2---||
|-0-0-0------|-(0)-------2-|-(2)--------|-2--2--2--2---||


   Bridge
    F#5                      N.C.
    Gtr I
||-----------|-------------|-------------|-------------|
||o----------|-------------|-------------|-------------|
||-----------|-------------|-------------|-------------|
||--4--------|-------------|-------------|-------------|
||o-4--------|-(4)---------|-------------|-------------|
||--4--------|-(4)---------|-(4)------4--|--7-------7--|
|
|   Gtr II
||-----------|-------------|-------------|-------------|
||o----------|-------------|-------------|-------------|
||--6--------|-(6)------6--|--6----------|-(6)---------|
||--x--------|----------x--|--x----------|-------------|
||o-4--------|-(4)------4--|--4----------|-(4)---------|
||-----------|-------------|-------------|-------------|


  D5                       E5
|----------|-------------|-----------|-------------||
|----------|-------------|-----------|------------o||
|----------|-------------|-----------|-------------||
|-0--------|-(0)---------|-2---------|-2-----------||
|-0--------|-(0)---------|-2---------|-2----------o||
|-0--------|-(0)---------|-2---------|-2-----------||
|
|----------|-------------|-----------|-------------||
|----------|-------------|-----------|------------o||
|-7--------|-(7)------7--|-6------6--|-5------5----||
|-x--------|----------x--|-x------x--|-x------x----||
|-5--------|-(5)------5--|-4------4--|-3------3---o||
|----------|-------------|-----------|-------------||


 Guitar Solo
  Faster Q=195
  N.C.
  Gtr I
|-------------------------|-------------------------|
|-------------------------|-------------------------|
|-------------------------|-------------------------|
|-7-4-4-7-4-4-7-4-4-7-4-4-|-7-4-4-7-4-4-7-4-4-7-4-4-|
|-------------------------|-------------------------|
|-------------------------|-------------------------|
|
| Gtr II
|-------------------------|-------------------------|
|-------------------------|-------------------------|
|-------------------------|-------------------------|
|-0h4p0-0h4p0-0h4p0-0h4p0-|-0h4p0-0h4p0-0h4p0-0h4p0-|
|-------------------------|-------------------------|
|-------------------------|-------------------------|


  N.C.
|-------------------------|-------------------------|
|-------------------------|-------------------------|
|-------------------------|-------------------------|
|-9-7-7-9-7-7-9-7-7-9-7-7-|-9-7-7-9-7-7-9-7-7-9-7-7-|
|-------------------------|-------------------------|
|-------------------------|-------------------------|
|
|-------------------------|-------------------------|
|-------------------------|-------------------------|
|-------------------------|-------------------------|
|-2h6p2-2h6p2-2h6p2-2h6p2-|-2h6p2-2h6p2-2h6p2-2h6p2-|
|-------------------------|-------------------------|
|-------------------------|-------------------------|

[ Tab from: http://www.guitartabs.cc/tabs/a/atreyu/this_flesh_a_tomb_tab.html ]
  N.C.
|-------------------------|-------------------------|
|-------------------------|-------------------------|
|-------------------------|-------------------------|
|-4-0-0-4-0-0-4-0-0-4-0-0-|-4-0-0-4-0-0-4-0-0-4-0-0-|
|-------------------------|-------------------------|
|-------------------------|-------------------------|
|
|-------------------------|-------------------------|
|-------------------------|-------------------------|
|-------------------------|-------------------------|
|-4h7p4-4h7p4-4h7p4-4h7p4-|-4h7p4-4h7p4-4h7p4-4h7p4-|
|-------------------------|-------------------------|
|-------------------------|-------------------------|


  N.C.
|-----------------------------|-----------------------------|
|-----------------------------|-----------------------------|
|-----------------------------|-----------------------------|
|-6--2-2-6--2-2-6--2-2-6--2-2-|-6--2-2-6--2-2-6--2-2-6--2-2-|
|-----------------------------|-----------------------------|
|-----------------------------|-----------------------------|
|
|-----------------------------|-----------------------------|
|-----------------------------|-----------------------------|
|-----------------------------|-----------------------------|
|-7h11p7-7h11p7-7h11p7-7h11p7-|-7h11p7-7h11p7-7h11p7-7h11p7-|
|-----------------------------|-----------------------------|
|-----------------------------|-----------------------------|


  N.C.
|-------------------------|-------------------------|
|-------------------------|-------------------------|
|-------------------------|-------------------------|
|-7-4-4-7-4-4-7-4-4-7-4-4-|-7-4-4-7-4-4-7-4-4-7-4-4-|
|-------------------------|-------------------------|
|-------------------------|-------------------------|
|
|-------------------------|-------------------------|
|-------------------------|-------------------------|
|-------------------------|-------------------------|
|-4h7p4-4h7p4-4h7p4-4h7p4-|-4h7p4-4h7p4-4h7p4-4h7p4-|
|-------------------------|-------------------------|
|-------------------------|-------------------------|


  N.C.
|-------------------------|-------------------------|
|-------------------------|-------------------------|
|-------------------------|-------------------------|
|-9-7-7-9-7-7-9-7-7-9-7-7-|-9-7-7-9-7-7-9-7-7-9-7-7-|
|-------------------------|-------------------------|
|-------------------------|-------------------------|
|
|-------------------------|-------------------------|
|-------------------------|-------------------------|
|-------------------------|-------------------------|
|-2h6p2-2h6p2-2h6p2-2h6p2-|-2h6p2-2h6p2-2h6p2-2h6p2-|
|-------------------------|-------------------------|
|-------------------------|-------------------------|


  N.C.
|-------------------------|-------------------------|
|-------------------------|-------------------------|
|-------------------------|-------------------------|
|-4-0-0-4-0-0-4-0-0-4-0-0-|-4-0-0-4-0-0-4-0-0-4-0-0-|
|-------------------------|-------------------------|
|-------------------------|-------------------------|
|
|-------------------------|-------------------------|
|-------------------------|-------------------------|
|-------------------------|-------------------------|
|-0h4p0-0h4p0-0h4p0-0h4p0-|-0h4p0-0h4p0-0h4p0-0h4p0-|
|-------------------------|-------------------------|
|-------------------------|-------------------------|


  N.C.
|-------------------------|-------------------------||
|-------------------------|-------------------------||
|-------------------------|-------------------------||
|-6-2-2-6-2-2-6-2-2-6-2-2-|-6-2-2-6-2-2-6-2-2-6-2-2-||
|-------------------------|-------------------------||
|-------------------------|-------------------------||
|
|-------------------------|-------------------------||
|-------------------------|-------------------------||
|-------------------------|-------------------------||
|-2h6p2-2h6p2-2h6p2-2h6p2-|-2h6p2-2h6p2-2h6p2-2h6p2-||
|-------------------------|-------------------------||
|-------------------------|-------------------------||


   Interlude
    Faster Q=198
    D5
    Gtr I
||--------------------------|---------------------------|
||o-------------------------|---------------------------|
||--11-11-11-11-(11)-11-11--|-(11)-11-11-11-11-11-11-11-|
||---x--x--x--x-------x--x--|-------x--x--x--x--x--x--x-|
||o--9--9--9--9--(9)--9--9--|--(9)--9--9--9--9--9--9--9-|
||--------------------------|---------------------------|
|
|   Gtr II
||--------------------------|---------------------------|
||o-------------------------|---------------------------|
||--11-11-11-11-(11)-11-11--|-(11)-11-11-11-11-11-11-11-|
||---x--x--x--x-------x--x--|-------x--x--x--x--x--x--x-|
||o--9--9--9--9--(9)--9--9--|--(9)--9--9--9--9--9--9--9-|
||--------------------------|---------------------------|
|
|   Gtr IV
||--------------------------|---------------------------|
||o-------------------------|---------------------------|
||--------------------------|---------------------------|
||---0--0--0--0--(0)--0--0--|--(0)--0--0-----0--0--0--0-|
||o--0--0--0--0--(0)--0--0--|--(0)--0--0-----0--0--0--0-|
||---0--0--0--0--(0)--0--0--|--(0)--0--0-----0--0--0--0-|


  E5
|-------------------------|---------------------------|
|-------------------------|---------------------------|
|--7--7--7--7--(7)--7--7--|--(7)--7--7--7--7--7--7--7-|
|--x--x--x--x-------x--x--|-------x--x--x--x--x--x--x-|
|--5--5--5--5--(5)--5--5--|--(5)--5--5--5--5--5--5--5-|
|-------------------------|---------------------------|
|
|-------------------------|---------------------------|
|-------------------------|---------------------------|
|-13-13-13-13-(13)-13-14--|-(14)-14-14-14-14-14-14-14-|
|--x--x--x--x-------x--x--|-------x--x--x--x--x--x--x-|
|-11-11-11-11-(11)-11-12--|-(12)-12-12-12-12-12-12-12-|
|-------------------------|---------------------------|
|
|-------------------------|---------------------------|
|-------------------------|---------------------------|
|-------------------------|---------------------------|
|--2--2--2--2--(2)--2--2--|--(2)--2--2-----2--2--2--2-|
|--2--2--2--2--(2)--2--2--|--(2)--2--2-----2--2--2--2-|
|--2--2--2--2--(2)--2--2--|--(2)--2--2-----2--2--2--2-|


  F#5                                    A5
|------------------|-------------------|------------------|--------------------|
|------------------|-------------------|------------------|--------------------|
|-6-6-6-6-(6)-6-6--|-(6)-6-6-6-6-6-6-6-|-7-7-7-7-(7)-7-6--|-(6)-6-6-6-6-6-6-6--|
|-x-x-x-x-----x-x--|-----x-x-x-x-x-x-x-|-x-x-x-x-----x-x--|-----x-x-x-x-x-x-x--|
|-4-4-4-4-(4)-4-4--|-(4)-4-4-4-4-4-4-4-|-5-5-5-5-(5)-5-4--|-(4)-4-4-4-4-4-4-4--|
|------------------|-------------------|------------------|--------------------|
|
|------------------|-------------------|------------------|--------------------|
|------------------|-------------------|------------------|--------------------|
|-9-9-9-9-(9)-9-9--|-(9)-9-9-9-9-9-9-9-|-7-7-7-7-(7)-7-6--|-(6)-6-6-6-6-6-6-6--|
|-x-x-x-x-----x-x--|-----x-x-x-x-x-x-x-|-x-x-x-x-----x-x--|-----x-x-x-x-x-x-x--|
|-7-7-7-7-(7)-7-7--|-(7)-7-7-7-7-7-7-7-|-5-5-5-5-(5)-5-4--|-(4)-4-4-4-4-4-4-4--|
|------------------|-------------------|------------------|--------------------|
|
|------------------|-------------------|------------------|--------------------|
|------------------|-------------------|------------------|--------------------|
|------------------|-------------------|------------------|--------------------|
|-4-4-4-4-(4)-4-4--|-(4)-4-4---4-4-4-4-|-7-7-7-7-(7)-7-7--|-(7)-7-7---7-7-7-7--|
|-4-4-4-4-(4)-4-4--|-(4)-4-4---4-4-4-4-|-7-7-7-7-(7)-7-7--|-(7)-7-7---7-7-7-7--|
|-4-4-4-4-(4)-4-4--|-(4)-4-4---4-4-4-4-|-7-7-7-7-(7)-7-7--|-(7)-7-7---7-7-7-7--|


  D5
|-------------------------|---------------------------|
|-------------------------|---------------------------|
|-11-11-11-11-(11)-11-11--|-(11)-11-11-11-11-11-11-11-|
|--x--x--x--x-------x--x--|-------x--x--x--x--x--x--x-|
|--9--9--9--9--(9)--9--9--|--(9)--9--9--9--9--9--9--9-|
|-------------------------|---------------------------|
|
|-------------------------|---------------------------|
|-------------------------|---------------------------|
|-11-11-11-11-(11)-11-11--|-(11)-11-11-11-11-11-11-11-|
|--x--x--x--x-------x--x--|-------x--x--x--x--x--x--x-|
|--9--9--9--9--(9)--9--9--|--(9)--9--9--9--9--9--9--9-|
|-------------------------|---------------------------|
|
|-------------------------|---------------------------|
|-------------------------|---------------------------|
|-------------------------|---------------------------|
|--0--0--0--0--(0)--0--0--|--(0)--0--0-----0--0--0--0-|
|--0--0--0--0--(0)--0--0--|--(0)--0--0-----0--0--0--0-|
|--0--0--0--0--(0)--0--0--|--(0)--0--0-----0--0--0--0-|


  E5
|-------------------------|----------------------------|
|-------------------------|----------------------------|
|--7--7--7--7--(7)--7--7--|--(7)--7--7--7--7--7--7--7--|
|--x--x--x--x-------x--x--|-------x--x--x--x--x--x--x--|
|--5--5--5--5--(5)--5--5--|--(5)--5--5--5--5--5--5--5--|
|-------------------------|----------------------------|
|
|-------------------------|----------------------------|
|-------------------------|----------------------------|
|-13-13-13-13-(13)-13-14--|-(14)-14-14-14-14-14-14-14--|
|--x--x--x--x-------x--x--|-------x--x--x--x--x--x--x--|
|-11-11-11-11-(11)-11-12--|-(12)-12-12-12-12-12-12-12--|
|-------------------------|----------------------------|
|
|-------------------------|----------------------------|
|-------------------------|----------------------------|
|-------------------------|----------------------------|
|--2--2--2--2--(2)--2--2--|--(2)--2--2-----2--2--2--2--|
|--2--2--2--2--(2)--2--2--|--(2)--2--2-----2--2--2--2--|
|--2--2--2--2--(2)--2--2--|--(2)--2--2-----2--2--2--2--|


  F#5
|------------------|-------------------|
|------------------|-------------------|
|-6-6-6-6-(6)-6-6--|-(6)-6-6-6-6-6-6-6-|
|-x-x-x-x-----x-x--|-----x-x-x-x-x-x-x-|
|-4-4-4-4-(4)-4-4--|-(4)-4-4-4-4-4-4-4-|
|------------------|-------------------|
|
|------------------|-------------------|
|------------------|-------------------|
|-9-9-9-9-(9)-9-9--|-(9)-9-9-9-9-9-9-9-|
|-x-x-x-x-----x-x--|-----x-x-x-x-x-x-x-|
|-7-7-7-7-(7)-7-7--|-(7)-7-7-7-7-7-7-7-|
|------------------|-------------------|
|
|------------------|-------------------|
|------------------|-------------------|
|------------------|-------------------|
|-4-4-4-4-(4)-4-4--|-(4)-4-4---4-4-4-4-|
|-4-4-4-4-(4)-4-4--|-(4)-4-4---4-4-4-4-|
|-4-4-4-4-(4)-4-4--|-(4)-4-4---4-4-4-4-|


  A5
|-------------------------|----------------------||
|-------------------------|---------------------o||
|--7--7--7--7--(7)--7--6--|--(6)-6-6-6-6-6-6-6---||
|--x--x--x--x-------x--x--|------x-x-x-x-x-x-x---||
|--5--5--5--5--(5)--5--4--|--(4)-4-4-4-4-4-4-4--o||
|-------------------------|----------------------||
|
|-------------------------|----------------------||
|-------------------------|---------------------o||
|-14-14-14-14-(14)-14-13--|-(13)-9-9-9-9-9-9-9---||
|--x--x--x--x-------x--x--|------x-x-x-x-x-x-x---||
|-12-12-12-12-(12)-12-11--|-(11)-7-7-7-7-7-7-7--o||
|-------------------------|----------------------||
|
|-------------------------|----------------------||
|-------------------------|---------------------o||
|-------------------------|----------------------||
|--7--7--7--7--(7)--7--7--|--(7)-7-7---7-7-7-7---||
|--7--7--7--7--(7)--7--7--|--(7)-7-7---7-7-7-7--o||
|--7--7--7--7--(7)--7--7--|--(7)-7-7---7-7-7-7---||


 Outro
  Half-Time Q=96
  Dmaj7sus2
  Gtrs I, II
                                 >
|-----------------------------|-------------------------------|
|-----------------------------|-------------------------------|
|-----------------------------|-------------------------------|
|-0---------------------------|-(0)---------------------------|
|-0---------------------------|-(0)---------------------------|
|-0---------------------------|-(0)---------------------------|
|
| Gtr V
|-0-0-0-0-0-0-0-0-0-0-0-0-0-0-|--0--0-0-0-0-0-0-0-0-0-0-0-0-0-|
|-5-5-5-5-5-5-5-5-5-5-5-5-5-5-|--5--5-5-5-5-5-5-5-5-5-5-5-5-5-|
|-6-6-6-6-6-6-6-6-6-6-6-6-6-6-|--6--6-6-6-6-6-6-6-6-6-6-6-6-6-|
|-7-7-7-7-7-7-7-7-7-7-7-7-7-7-|--7--7-7-7-7-7-7-7-7-7-7-7-7-7-|
|-0-0-0-0-0-0-0-0-0-0-0-0-0-0-|--0--0-0-0-0-0-0-0-0-0-0-0-0-0-|
|-0-0-0-0-0-0-0-0-0-0-0-0-0-0-|--0--0-0-0-0-0-0-0-0-0-0-0-0-0-|


  F#m11
  Gtr V
|-0-0-0-0-0-0-0-0-0-0-0-0-0-0-|-0-0-0-0-0-0-0-0-0-0-0-0-0-0-|
|-0-0-0-0-0-0-0-0-0-0-0-0-0-0-|-0-0-0-0-0-0-0-0-0-0-0-0-0-0-|
|-6-6-6-6-6-6-6-6-6-6-6-6-6-6-|-6-6-6-6-6-6-6-6-6-6-6-6-6-6-|
|-7-7-7-7-7-7-7-7-7-7-7-7-7-7-|-7-7-7-7-7-7-7-7-7-7-7-7-7-7-|
|-4-4-4-4-4-4-4-4-4-4-4-4-4-4-|-4-4-4-4-4-4-4-4-4-4-4-4-4-4-|
|-4-4-4-4-4-4-4-4-4-4-4-4-4-4-|-4-4-4-4-4-4-4-4-4-4-4-4-4-4-|


    H.=H
    Dmaj7sus2
||--0-0-0-0-0-0-0-0-0-0-0-0-0-0-|-0-0-0-0-0-0-0-0-0-0-0-0-0-0--|
||o-5-5-5-5-5-5-5-5-5-5-5-5-5-5-|-5-5-5-5-5-5-5-5-5-5-5-5-5-5--|
||--6-6-6-6-6-6-6-6-6-6-6-6-6-6-|-6-6-6-6-6-6-6-6-6-6-6-6-6-6--|
||--7-7-7-7-7-7-7-7-7-7-7-7-7-7-|-7-7-7-7-7-7-7-7-7-7-7-7-7-7--|
||o-0-0-0-0-0-0-0-0-0-0-0-0-0-0-|-0-0-0-0-0-0-0-0-0-0-0-0-0-0--|
||--0-0-0-0-0-0-0-0-0-0-0-0-0-0-|-0-0-0-0-0-0-0-0-0-0-0-0-0-0--|


  F#m11
                                                             3x
|-0-0-0-0-0-0-0-0-0-0-0-0-0-0-|-0-0-0-0-0-0-0-0-0-0-0-0-0-0--||
|-0-0-0-0-0-0-0-0-0-0-0-0-0-0-|-0-0-0-0-0-0-0-0-0-0-0-0-0-0-o||
|-6-6-6-6-6-6-6-6-6-6-6-6-6-6-|-6-6-6-6-6-6-6-6-6-6-6-6-6-6--||
|-7-7-7-7-7-7-7-7-7-7-7-7-7-7-|-7-7-7-7-7-7-7-7-7-7-7-7-7-7--||
|-4-4-4-4-4-4-4-4-4-4-4-4-4-4-|-4-4-4-4-4-4-4-4-4-4-4-4-4-4-o||
|-4-4-4-4-4-4-4-4-4-4-4-4-4-4-|-4-4-4-4-4-4-4-4-4-4-4-4-4-4--||
Comments