Atreyu - The Remembrance Ballad Chords & Tabs

 

The Remembrance Ballad Chords & Tabs

Atreyu Chords & Tabs

Version: 1 Type: Tab 0 ratings
1 star 2 stars 3 stars 4 stars 5 stars
comments

The Remembrance Ballad Tab

this is a kick ass song and cd.

|----------------------------------------------------------------------------|
|--15-17-18--17-18-----------------------------------------------------------|
|------------------17-19-17-19-----------------------------------------------|
|0---------------------------------------------------------------------------|
|0---------------------------------------------------------------------------|
|0---------------------------------------------------------------------------|

|------------------17-18-20-20-18-17----------------------------------------|
|--15-17-18--17-18-------------------20----22-20-22-18-20 17----------------|
|---------------------------------------------------------------------------|
|0--------------------------------------------------------------------------|
|0--------------------------------------------------------------------------|
|0--------------------------------------------------------------------------|
[ Tab from: http://www.guitartabs.cc/tabs/a/atreyu/the_remembrance_ballad_tab.html ]
|---------------------------------------------------------------------------|
|--15-17-18--17-18----------------------------------------------------------|
|------------------17-19-17-19----------------------------------------------|
|0--------------------------------------------------------------------------|
|0--------------------------------------------------------------------------|
|0--------------------------------------------------------------------------|

|------------------17-18-20-20-22-18-----------------------------------------|
|--15-17-18--17-18-----------------------22-20-22-18-20 17-------------------|
|----------------------------------------------------------------------------|
|----------------------------------------------------------------------------|
|----------------------------------------------------------------------------|
|----------------------------------------------------------------------------|

|----------------------------------------------------------------------------|
|--15-17-18--17-18-----------------------------------------------------------|
|------------------17-19-17-19-----------------------------------------------|
|----------------------------------------------------------------------------|
|----------------------------------------------------------------------------|
|----------------------------------------------------------------------------|


|------------------17-18-20-20-22-20-18-20---22-20-18-20-17------------------|
|--15-17-18--17-18------------------------------------------18-15------------|
|-----------------------------------------------------------------14---------|
|----------------------------------------------------------------------------|
|----------------------------------------------------------------------------|
|----------------------------------------------------------------------------|
Comments