Atreyu - The Remembrance Ballad Chords & Tabs

 

The Remembrance Ballad Chords & Tabs

Atreyu Chords & Tabs

Version: 2 Type: Bass Tab 0 ratings
1 star 2 stars 3 stars 4 stars 5 stars
comments

The Remembrance Ballad Bass Tab

   
THE REMEMBRANCE BALLAD (Bassline)
As recorded by Atreyu
(From the 2004 Album THE CURSE)

Gtr I (C G C F)

   Intro
    Q=145
   4/4
    Gtr I
||-----------|------------|----------|---------||
||o----------|------------|----------|--------o||
||o----------|------------|----------|--------o||
||--0--------|-(0)--------|-8--------|-(8)-----||


   Pre-Verse
||------------------|-----------------|
||o-----------------|-----------------|
||o-----------------|-----------------|
||--0-0-0-0-0-0-0-0-|-0-0-0-0-0-0-0-0-|


                                     4x
|-----------------|------------------||------|
|-----------------|-----------------o||------|
|-----------------|-----------------o||------|
|-8-8-8-8-8-8-8-8-|-8-8-8-8-8-8-8-8--||-8----|


   Verse
||---------------|-------------|--------------|---------------||
||o--------------|-------------|--------------|--------------o||
||o--------------|-------------|--------------|--------------o||
||--0-0-0-0-0----|-0-0-0---0---|-8-8-8-8-8----|-8-8-8---8-----||


||----------------------|-------------|---------------------|--------------||
||o---------------------|-------------|---------------------|-------------o||
||o---------------------|-------------|---------------------|-------------o||
||--0-0-0-0-0-0-0-0-----|-0-0-0---0---|-8-8-8-8-8-8-8-8-----|-8-8-8---8----||


 Pre-Chorus
|-----------------|-----------------|
|-----------------|-----------------|
|-----------------|-----------------|
|-5-5-5-5-5-5-5-5-|-7-7-7-7-7-7-7-7-|


|-----------------|-------------------------|
|-----------------|-------------------------|
|-----------------|-------------------------|
|-8-8-8-8-8-8-8-8-|-10-10-10-10-10-10-10-10-|


|-------------------------|-------------------------|----------|--------|
|-------------------------|-------------------------|----------|--------|
|-------------------------|-------------------------|----------|--------|
|-12-12-12-12-12-12-12-12-|-10-10-10-10-10-10-10-10-|-8--------|-(8)----|


   Chorus
||------------------|-----------------|-----------------|------------------|
||o-----------------|-----------------|-----------------|------------------|
||o-----------------|-----------------|-----------------|------------------|
||--3-3-3-3-3-3-3-3-|-3-3-3-3-3-3-3-3-|-0-0-0-0-0-0-0-0-|-0-0-0-0-0-0-0-0--|


|-----------------|-----------------|
|-----------------|-----------------|
|-----------------|-----------------|
|-8-8-8-8-8-8-8-8-|-8-8-8-8-8-8-8-8-|


|-----------------|--------------------------||
|-----------------|-------------------------o||
|-----------------|-------------------------o||
|-7-7-7-7-7-7-7-7-|-10-10-10-10-10-10-10-10--||


   Verse
                                                                   4x
||-----------------|-------------|----------------|----------------||
||o----------------|-------------|----------------|---------------o||
||o-0-5-7-8-5------|-------------|-0-5-7-8-5------|---------------o||
||------------7-8--|-(8)----0----|-----------7-5--|-(5)----5S7-----||


 Pre-Chorus
|-----------------|-----------------|
|-----------------|-----------------|
|-----------------|-----------------|
|-5-5-5-5-5-5-5-5-|-7-7-7-7-7-7-7-7-|


|-----------------|-------------------------|
|-----------------|-------------------------|
|-----------------|-------------------------|
|-8-8-8-8-8-8-8-8-|-10-10-10-10-10-10-10-10-|

[ Tab from: http://www.guitartabs.cc/tabs/a/atreyu/the_remembrance_ballad_btab_ver_2.html ]
|-------------------------|-------------------------|----------|--------|
|-------------------------|-------------------------|----------|--------|
|-------------------------|-------------------------|----------|--------|
|-12-12-12-12-12-12-12-12-|-10-10-10-10-10-10-10-10-|-8--------|-(8)----|


   Chorus
||------------------|-----------------|-----------------|------------------|
||o-----------------|-----------------|-----------------|------------------|
||o-----------------|-----------------|-----------------|------------------|
||--3-3-3-3-3-3-3-3-|-3-3-3-3-3-3-3-3-|-0-0-0-0-0-0-0-0-|-0-0-0-0-0-0-0-0--|


|-----------------|-----------------|
|-----------------|-----------------|
|-----------------|-----------------|
|-8-8-8-8-8-8-8-8-|-8-8-8-8-8-8-8-8-|


|-----------------|--------------------------||
|-----------------|-------------------------o||
|-----------------|-------------------------o||
|-7-7-7-7-7-7-7-7-|-10-10-10-10-10-10-10-10--||


   Guitar Solo
||-----------|-----------|----------|-----------|
||o----------|-----------|----------|-----------|
||o----------|-----------|----------|-----------|
||--5--------|-5----5----|-8--------|-8----8----|


|----------|-----------|----------|------------||
|----------|-----------|----------|-----------o||
|----------|-----------|----------|-----------o||
|-3--------|-3----3----|-2--------|-2----2-----||


 Pre-Chorus
|-----------------|-----------------|
|-----------------|-----------------|
|-----------------|-----------------|
|-5-5-5-5-5-5-5-5-|-7-7-7-7-7-7-7-7-|


|-----------------|-------------------------|
|-----------------|-------------------------|
|-----------------|-------------------------|
|-8-8-8-8-8-8-8-8-|-10-10-10-10-10-10-10-10-|


|-------------------------|-------------------------|----------|--------|
|-------------------------|-------------------------|----------|--------|
|-------------------------|-------------------------|----------|--------|
|-12-12-12-12-12-12-12-12-|-10-10-10-10-10-10-10-10-|-8--------|-(8)----|


   Chorus/Outro
||------------------|-----------------|-----------------|------------------|
||o-----------------|-----------------|-----------------|------------------|
||o-----------------|-----------------|-----------------|------------------|
||--3-3-3-3-3-3-3-3-|-3-3-3-3-3-3-3-3-|-0-0-0-0-0-0-0-0-|-0-0-0-0-0-0-0-0--|


|-----------------|-----------------|
|-----------------|-----------------|
|-----------------|-----------------|
|-8-8-8-8-8-8-8-8-|-8-8-8-8-8-8-8-8-|


                                             4x
|-----------------|--------------------------||
|-----------------|-------------------------o||
|-----------------|-------------------------o||
|-7-7-7-7-7-7-7-7-|-10-10-10-10-10-10-10-10--||


|----------|--------*|
|----------|--------*|
|----------|--------*|
|-3--------|-(3)----*|



Tablature Legend
----------------
 h   - hammer-on
 p   - pull-off
 b   - bend
 pb  - pre-bend
 r   - bend release (if no number after the r, then release immediately)
 /\  - slide into or out of (from/to "nowhere")
 s   - legato slide
 S   - shift slide
 - natural harmonic
[n]  - artificial harmonic
n(n) - tapped harmonic
 ~   - vibrato
 tr  - trill
 T   - tap
 TP  - trem. picking
 PM  - palm muting
\n/  - tremolo bar dip; n = amount to dip
 \n  - tremolo bar down
 n/  - tremolo bar up
/n\  - tremolo bar inverted dip
 =   - hold bend; also acts as connecting device for hammers/pulls
 <> - volume swell (louder/softer)
 x   - on rhythm slash represents muted slash
 o   - on rhythm slash represents single note slash

Misc Legend
-----------
 |  - bar
||  - double bar
||o - repeat start
o|| - repeat end
*|  - double bar (ending)
 :  - bar (freetime)
 $  - Segno
 &  - Coda
Tempo markers -  = BPM(8/16=s8/s16), where s8 = swing 8ths, s16 = swing 16ths
Comments