Atreyu - The Remembrance Ballad Chords & Tabs

 

The Remembrance Ballad Chords & Tabs

Atreyu Chords & Tabs

Version: 1 Type: Bass Tab 0 ratings
1 star 2 stars 3 stars 4 stars 5 stars
comments

The Remembrance Ballad Bass Tab

   
Band:  Atreyu
Song:  The Rememberance Ballad
Album: The Curse

 \ - slide down
 / - slide up
(2)- ghost note/let ring
 X - mute
 h - hammer-on
 p - pull-off
|3|- triplet

Drop-C Tuning (Low to High): C G C F

I am pretty sure that this is correct, it's the guitar solo that may be wrong, if it is I'm sorry. \m/

  Intro
||-------|--------|-------|--------|--------|---------|--------|---------||
||-------|--------|-------|--------|--------|---------|--------|---------||
||-------|--------|-1-----|----(1)-|--------|---------|--------|---------||
||--0----|----(0)-|-------|--------|-0------|-----(0)-|-1------|-----(1)-||


  Verse 1                                                               x4
||------------------|-----------------|-----------------|-----------------||
||.-----------------|-----------------|-----------------|----------------.||
||.-----------------|-----------------|-1-1-1-1-1-1-1-1-|-1-1-1-1-1-1-1-1.||
||--0-0-0-0-0-0-0-0-|-0-0-0-0-0-0-0-0-|-----------------|-----------------||


                Verse 2
||------------||------------|---------|---------|----------||
||------------||.-----------|---------|---------|---------.||
||-0------(0)-||.-----------|---------|-1-1-1-1-|-1-1--1--.||
||------------||---*0-0-0-0-|-0-0--0--|---------|----------||
                   *Listen to song for correct rhythm

||-----------------------------|-----------------------------||
||.----------------------------|----------------------------.||
||.----------------------------|-1-1-1-1-1-1-1--1-1-1--1-1--.||
||---0-0-0-0-0-0-0--0-0-0--0-0-|-----------------------------||
     |_3_| |_3_|                 |_3_| |_3_|
[ Tab from: http://www.guitartabs.cc/tabs/a/atreyu/the_remembrance_ballad_btab.html ]
  Pre-Chorus
||------------------|-----------------|-----------------|-----------------|
||------------------|-----------------|-----------------|-----------------|
||------------------|-0-0-0-0-0-0-0-0-|-1-1-1-1-1-1-1-1-|-3-3-3-3-3-3-3-3-|
||--5-5-5-5-5-5-5-5-|-----------------|-----------------|-----------------|

|-----------------|-----------------|-----------------|-----------------||
|-----------------|-----------------|-----------------|-----------------||
|-5-5-5-5-5-5-5-5-|-3-3-3-3-3-3-3-3-|-1-1-1-1-1-1-1-1-|-1-1-1-1-1-1-1-1-||
|-----------------|-----------------|-----------------|-----------------||

  Chorus
||-------------------|-----------------|-----------------|-----------------|
||.------------------|-----------------|-----------------|-----------------|
||.------------------|-----------------|-----------------|-----------------|
||---3-3-3-3-3-3-3-3-|-3-3-3-3-3-3-3-3-|-0-0-0-0-0-0-0-0-|-0-0-0-0-0-0-0-0-|

|-----------------|-----------------|-----------------|-------------------||
|-----------------|-----------------|-----------------|------------------.||
|-1-1-1-1-1-1-1-1-|-1-1-1-1-1-1-1-1-|-0-0-0-0-0-0-0-0-|-3-3-3-3-3-3-3-3--.||
|-----------------|-----------------|-----------------|-------------------||


  Verse 3
||-------------------|-----------|-------------------|--------------||
||.--0--0-0-0--3-2---|-----------|-0--0-0-0--3-2-----|-------------.||
||.----------------3-|-5---------|---------------3-1-|-(1)--1h3-3--.||
||-------------------|--------0--|-------------------|--------------||
        |_3_|                         |_3_|

  Guitar Solo
||-------------------|-----------------|-----------------|-----------------|
||.------------------|-----------------|-----------------|-----------------|
||.------------------|-----------------|-1-1-1-1-1-1-1-1-|-1-1-1-1-1-1-1-1-|
||---0-0-0-0-0-0-0-0-|-0-0-0-0-0-0-0-0-|-----------------|-----------------|

|-----------------|-----------------|-----------------|-------------------||
|-----------------|-----------------|-----------------|------------------.||
|-----------------|-----------------|-0-0-0-0-0-0-0-0-|-0-0-0-0-0-0-0-0--.||
|-3-3-3-3-3-3-3-3-|-3-3-3-3-3-3-3-3-|-----------------|-------------------||
Comments