Atreyu - Suicide Notes And Butterfly Kisses Chords & Tabs

 

Suicide Notes And Butterfly Kisses Chords & Tabs

Atreyu Chords & Tabs

Version: 1 Type: Tab 0 ratings
1 star 2 stars 3 stars 4 stars 5 stars
comments

Suicide Notes And Butterfly Kisses Tab

   
                           
Atreyu


Album: Suicide Notes and Butterfly Kisses 


A SONG FOR THE OPTIMISTS
                 

Gtr I (C G C F A D) - 'Untitled'
Gtr II (C G C F A D) - 'Untitled'

 Intro
  Q=158
  N.C.
 4/4
  Gtrs I, II
|-----|
|-----|
|-----|
|-----|
|-----|
|-----|


    D5         Bb5        D5      C5   Bb5    A5
||-----------|----------|------------|-------------||
||o----------|----------|------------|------------o||
||-----------|----------|------------|-------------||
||--0--------|-8--------|-0-------10-|-8------7----||
||o-0--------|-8--------|-0-------10-|-8------7---o||
||--0--------|-8--------|-0-------10-|-8------7----||
  D5                        Bb5
  Gtr I
|-------------------------|-------------------------|
|-------------------------|-------------------------|
|-------------------------|-------------------------|
|-0-----------------------|-8-----------------------|
|-0-----------------------|-8-----------------------|
|-0-----------------------|-8-----------------------|
|
| Gtr II
|-------------------------|-------------------------|
|-------------------------|-------------------------|
|-7-7-7-7-7-7-7-7-7-7-7-7-|-9-9-9-9-9-9-9-9-9-9-9-9-|
|-------------------------|-------------------------|
|-5-5-5-5-5-5-5-5-5-5-5-5-|-7-7-7-7-7-7-7-7-7-7-7-7-|
|-------------------------|-------------------------|
 D5                    C5     Bb5                     A5
|----------------------------|----------------------------------|
|----------------------------|----------------------------------|
|----------------------------|----------------------------------|
|-0---------------------10---|--8-----------------------7-------|
|-0---------------------10---|--8-----------------------7-------|
|-0---------------------10---|--8-----------------------7-------|
|
|----------------------------|----------------------------------|
|----------------------------|----------------------------------|
|-5-5-5-5-5-5-5-5-5-5-5----5-|-10-10-10-10-10-10-9-9-9-10-10-10-|
|----------------------------|----------------------------------|
|-3-3-3-3-3-3-3-3-3-3-3----3-|--8--8--8--8--8--8-7-7-7--8--8--8-|
|----------------------------|----------------------------------|


  D5                        Bb5
|-------------------------|-------------------------|
|-------------------------|-------------------------|
|-------------------------|-------------------------|
|-0-----------------------|-8-----------------------|
|-0-----------------------|-8-----------------------|
|-0-----------------------|-8-----------------------|
|
|-------------------------|-------------------------|
|-------------------------|-------------------------|
|-7-7-7-7-7-7-7-7-7-7-7-7-|-9-9-9-9-9-9-9-9-9-9-9-9-|
|-------------------------|-------------------------|
|-5-5-5-5-5-5-5-5-5-5-5-5-|-7-7-7-7-7-7-7-7-7-7-7-7-|
|-------------------------|-------------------------|


  A5                                    F5
|-------------------------------------|-------------------------------------||
|-------------------------------------|-------------------------------------||
|-------------------------------------|-------------------------------------||
|--7----------------------------------|--3----------------------------------||
|--7----------------------------------|--3----------------------------------||
|--7----------------------------------|--3----------------------------------||
|
|-------------------------------------|-------------------------------------||
|-------------------------------------|-------------------------------------||
|-10-10-10-10-10-10-10-10-10-10-10-10-|-10-10-10-10-10-10-10-10-10-10-10-10-||
|-------------------------------------|-------------------------------------||
|--8--8--8--8--8--8--8--8--8--8--8--8-|--8--8--8--8--8--8--8--8--8--8--8--8-||
|-------------------------------------|-------------------------------------||


   Verse
    D5                              F5
||--------------------------------|-------------------------------|
||o-------------------------------|-------------------------------|
||--------------------------------|-------------------------------|
||---0--0--0-0-0-0-0-0-0--0--0--0-|--3--3--3--3--3--3-3-3-3-3-3-3-|
||o--0--0--0-0-0-0-0-0-0--0--0--0-|--3--3--3--3--3--3-3-3-3-3-3-3-|
||---0--0--0-0-0-0-0-0-0--0--0--0-|--3--3--3--3--3--3-3-3-3-3-3-3-|
|
||--------------------------------|-------------------------------|
||o-------------------------------|-------------------------------|
||--10-10-10-7-7-7-9-9-9-10-10-10-|-12-12-12-10-10-10-9-9-9-7-7-7-|
||--------------------------------|-------------------------------|
||o--8--8--8-5-5-5-7-7-7--8--8--8-|-10-10-10--8--8--8-7-7-7-5-5-5-|
||--------------------------------|-------------------------------|

  Bb5                          C5
|----------------------------|-------------------------------------|
|----------------------------|-------------------------------------|
|----------------------------|-------------------------------------|
|-8-8-8-8-8-8-8-8-8--8--8--8-|-10-10-10-10-10-10-10-10-10-10-10-10-|
|-8-8-8-8-8-8-8-8-8--8--8--8-|-10-10-10-10-10-10-10-10-10-10-10-10-|
|-8-8-8-8-8-8-8-8-8--8--8--8-|-10-10-10-10-10-10-10-10-10-10-10-10-|
|
|----------------------------|-------------------------------------|
|----------------------------|-------------------------------------|
|-7-7-7-7-7-7-9-9-9-10-10-10-|--9--9--9--7--7--7--5--5--5--3--3--3-|
|----------------------------|-------------------------------------|
|-5-5-5-5-5-5-7-7-7--8--8--8-|--7--7--7--5--5--5--3--3--3--1--1--1-|
|----------------------------|-------------------------------------|


  D5                           F5
|----------------------------|-------------------------------|
|----------------------------|-------------------------------|
|----------------------------|-------------------------------|
|-0-0-0-0-0-0-0-0-0--0--0--0-|--3--3--3--3--3--3-3-3-3-3-3-3-|
|-0-0-0-0-0-0-0-0-0--0--0--0-|--3--3--3--3--3--3-3-3-3-3-3-3-|
|-0-0-0-0-0-0-0-0-0--0--0--0-|--3--3--3--3--3--3-3-3-3-3-3-3-|
|
|----------------------------|-------------------------------|
|----------------------------|-------------------------------|
|-------7-7-7-9-9-9-10-10-10-|-12-12-12-10-10-10-9-9-9-7-7-7-|
|-7-7-7----------------------|-------------------------------|
|-------5-5-5-7-7-7--8--8--8-|-10-10-10--8--8--8-7-7-7-5-5-5-|
|-7-7-7----------------------|-------------------------------|


  Bb5                             C5
|-------------------------------|--------------------------------------||
|-------------------------------|-------------------------------------o||
|-------------------------------|--------------------------------------||
|-8-8-8-8-8-8--8--8--8--8--8--8-|-10-10-10-10-10-10-10-10-10-10-10-10--||
|-8-8-8-8-8-8--8--8--8--8--8--8-|-10-10-10-10-10-10-10-10-10-10-10-10-o||
|-8-8-8-8-8-8--8--8--8--8--8--8-|-10-10-10-10-10-10-10-10-10-10-10-10--||
|
|-------------------------------|--------------------------------------||
|-------------------------------|-------------------------------------o||
|-7-7-7-7-7-7-15-15-15-15-15-15-|-14-14-14-14-14-14--9--9--9--9--9--9--||
|-------------------------------|--------------------------------------||
|-5-5-5-5-5-5-13-13-13-13-13-13-|-12-12-12-12-12-12--7--7--7--7--7--7-o||
|-------------------------------|--------------------------------------||


   Bridge
    Slower Q=148
    N.C.                                                                3x
||-------------------|------------------|----------|-------------||
||o------------------|------------------|----------|------------o||
||-------------------|------------------|----------|-------------||
||-------------------|------------------|----------|-------------||
||o-5----(5)-7-(7)-8-|-5----(5)-7-(7)-8-|-3--------|-0----3-0-3-o||
||-------------------|------------------|----------|-------------||
|                                                                3x
||-------------------|------------------|----------|-------------||
||o------------------|------------------|----------|------------o||
||-------------------|------------------|----------|-------------||
||--3----(3)-5-(5)-7-|-3----(3)-5-(5)-7-|-2--------|-3----5-3-2--||
||o------------------|------------------|----------|------------o||
||-------------------|------------------|----------|-------------||


  N.C.                                                        Bb5
                                                  9/8
|------------------|------------------|----------|--------------||
|------------------|------------------|----------|--------------||
|------------------|------------------|----------|------------3-||
|------------------|------------------|----------|------------3-||
|-5----(5)-7-(7)-8-|-5----(5)-7-(7)-8-|-3--------|-0----3-0-3-1-||
|------------------|------------------|----------|--------------||
|
|------------------|------------------|----------|--------------||
|------------------|------------------|----------|--------------||
|------------------|------------------|----------|------------3-||
|-3----(3)-5-(5)-7-|-3----(3)-5-(5)-7-|-2--------|-3----5-3-2-3-||
|------------------|------------------|----------|------------1-||
|------------------|------------------|----------|--------------||


 Interlude
  Faster Q=173
                                   C5                                   D5
 4/4
  Gtrs I, II
       PM--------|                          PM--------|
|------------------|-----------------|------------------|-----------------|
|------------------|-----------------|------------------|-----------------|
|-(3)----------3-3-|-3-3-3-3-3-3-3-5-|-(5)----------5-5-|-5-5-5-5-5-5-5---|
|-(3)--3-3-3-3-3-3-|-3-3-3-3-3-3-3-5-|-(5)--5-5-5-5-5-5-|-5-5-5-5-5-5-5-0-|
|-(1)--1-1-1-1-1-1-|-1-1-1-1-1-1-1-3-|-(3)--3-3-3-3-3-3-|-3-3-3-3-3-3-3-0-|
|------------------|-----------------|------------------|---------------0-|


                                           C5
||-------------------|------------------------|
||o------------------|------------------------|
||-------------------|------------------------|
||--(0)--------------|---------------------10-|
||o-(0)--0-0-0-0-0-0-|-0-0-0-0-0-0-0-0-0-0-10-|
||--(0)--0-0-0-0-0-0-|-0-0-0-0-0-0-0-0-0-0-10-|

                   F5            E5 D5
                                       3x
|--------------------|-----------------||
|--------------------|----------------o||
|--------------------|-----------------||
|-(10)--10--10-10--3-|-(3)--3--3-2--0--||
|-(10)--10--10-10--3-|-(3)--3--3-2--0-o||
|-(10)--10--10-10--3-|-(3)--3--3-2--0--||
                                         C5
  Gtr I
|------------------|------------------------|
|------------------|------------------------|
|------------------|------------------------|
|-(0)--------------|---------------------10-|
|-(0)--0-0-0-0-0-0-|-0-0-0-0-0-0-0-0-0-0-10-|
|-(0)--0-0-0-0-0-0-|-0-0-0-0-0-0-0-0-0-0-10-|
|
| Gtr II
|------------------|------------------------|
|------------------|------------------------|
|------------------|------------------------|
|-(0)--------------|---------------------10-|
|-(0)--0-0-0-0-0-0-|-0-0-0-0-0-0-0-0-0-0-10-|
|-(0)--0-0-0-0-0-0-|-0-0-0-0-0-0-0-0-0-0-10-|


                   F5            E5  D5
|--------------------|------------------||
|--------------------|------------------||
|--------------------|------------------||
|-(10)--10--10-10--3-|-(3)--3--3--2--0--||
|-(10)--10--10-10--3-|-(3)--3--3--2--0--||
|-(10)--10--10-10--3-|-(3)--3--3--2--0--||
|
|--------------------|------------------||
|--------------------|-----------/6-----||
|--------------------|---------------7--||
|-(10)--10--10-10--3-|-(3)--3-----------||
|-(10)--10--10-10--3-|-(3)--3-----------||
|-(10)--10--10-10--3-|-(3)--3-----------||


 Guitar Solo
            C5   Bb5           F5  D5          F5D5 C5                F5  D5
|------------------|-----------------|-----------------|--------------------|
|------------------|-----------------|-----------------|--------------------|
|------------------|-----------------|-----------------|--------------------|
|-(0)--0----10---8-|-(8)--8----3---0-|-(0)--0--3-0--10-|-(10)--10-----3---0-|
|-(0)--0----10---8-|-(8)--8----3---0-|-(0)--0--3-0--10-|-(10)--10-----3---0-|
|-(0)--0----10---8-|-(8)--8----3---0-|-(0)--0--3-0--10-|-(10)--10-----3---0-|
|
|------------------|-----------------|-----------------|--------------------|
|---------5----6---|---------5---6-5-|-(5)-------------|---6p5--6p5-6p5-----|
|-(7)------------7-|-(7)-------------|-----------------|----------------6-7-|
|------------------|-----------------|-----------------|--------------------|
|------------------|-----------------|-----------------|--------------------|
|------------------|-----------------|-----------------|--------------------|


            C5   Bb5               C5
|------------------|------------------|
|------------------|------------------|
|------------------|------------------|
|-(0)--0----10---8-|-(8)--8----8---10-|
|-(0)--0----10---8-|-(8)--8----8---10-|
|-(0)--0----10---8-|-(8)--8----8---10-|
|
|------------------|------------------|
|---------5----6---|---------5---6----|
|-(7)------------7-|-(7)------------5-|
|------------------|------------------|
|------------------|------------------|
|------------------|------------------|


                                                     D5
|---------------------------|----------------------------|
|---------------------------|----------------------------|
|---------------------------|----------------------------|
|-(10)-10-10--10-10-10------|-10--10---10---10-10-10--0--|
|-(10)-10-10--10-10-10------|-10--10---10---10-10-10--0--|
|-(10)-10-10--10-10-10------|-10--10---10---10-10-10--0--|
|
|---------------------------|----------------------------|
|----------------------8b10-|-(8)--8p6--8-6--5--6--------|
|--(5)----------------------|----------------------5-[7]-|
|---------------------------|----------------------------|
|---------------------------|----------------------------|
|---------------------------|----------------------------|


           C5   Bb5           F5  D5
|-----------------|-----------------|
|-----------------|-----------------|
|-----------------|-----------------|
|-(0)--0---10---8-|-(8)--8----3---0-|
|-(0)--0---10---8-|-(8)--8----3---0-|
|-(0)--0---10---8-|-(8)--8----3---0-|
|
|-----------------|-----------------|
|-----------5-5-6-|---------5-6-8-6-|
|-(7)-------------|--7--------------|
|-----------------|-----------------|
|-----------------|-----------------|
|-----------------|-----------------|


          F5D5 C5                    F5   D5
|-----------------|------------------------------|
|-----------------|------------------------------|
|-----------------|------------------------------|
|-(0)--0--3-0--10-|-(10)----10--------3---0------|
|-(0)--0--3-0--10-|-(10)----10--------3---0------|
|-(0)--0--3-0--10-|-(10)----10--------3---0------|
|
|-----------------|---8p6p5----------------------|
|-(6)-------------|----------8p6p5-8-10-6-6b8====|
|-----------------|------------------------------|
|-----------------|------------------------------|
|-----------------|------------------------------|
|-----------------|------------------------------|


                 C5   Bb5                       C5
|--------------------------|-----------------------|
|--------------------------|-----------------------|
|--------------------------|-----------------------|
|-(0)------0-----10---8----|-(8)------8-----8---10-|
|-(0)------0-----10---8----|-(8)------8-----8---10-|
|-(0)------0-----10---8----|-(8)------8-----8---10-|
|
|-------------------5------|------------------5----|
|-(6)-(6)r(6)--8------6b8==|=(6)-(6)r(6)--8------6-|
|--------------------------|-----------------------|
|--------------------------|-----------------------|
|--------------------------|-----------------------|
|--------------------------|-----------------------|


                                     F5    D5
|-----------------------|---------------------|
|-----------------------|---------------------|
|-----------------------|---------------------|
|-(10)-10-10--10-10-10--|-10-10-10---3-3-3--0-|
|-(10)-10-10--10-10-10--|-10-10-10---3-3-3--0-|
|-(10)-10-10--10-10-10--|-10-10-10---3-3-3--0-|
|
|-----------------------|---------------------|
|--(6)------------------|--6--5------6-5------|
|-----------------------|--------7-6-----5-/7-|
|-----------------------|---------------------|
|-----------------------|---------------------|
|-----------------------|---------------------|


|------------|------------|------------|--------||
|------------|------------|------------|--------||
|------------|------------|------------|--------||
|-(0)--------|-(0)--------|-(0)--------|-(0)----||
|-(0)--------|-(0)--------|-(0)--------|-(0)----||
|-(0)--------|-(0)--------|-(0)--------|-(0)----||
|
|------------|------------|------------|--------||
|------------|------------|------------|--------||
|-(7)--------|-(7)--------|-(7)--------|-(7)----||
|------------|------------|------------|--------||
|------------|------------|------------|--------||
|------------|------------|------------|--------||

 Breakdown
  D5            F5                    Bb5           C5
  Gtr II
  PM------------------------------------------------------------------|
|-----------------|-----------------|-----------------|-----------------|
|-----------------|-----------------|-----------------|-----------------|
|-----------------|-----------------|-----------------|-----------------|
|-----------------|-----------------|-3-3-3-3-3-3-3-5-|-5-5-5-5-5-5-5-5-|
|-0-0-0-0-0-0-0-3-|-3-3-3-3-3-3-3-3-|-1-1-1-1-1-1-1-3-|-3-3-3-3-3-3-3-3-|
|-0-0-0-0-0-0-0-3-|-3-3-3-3-3-3-3-3-|-----------------|-----------------|
D5            F5
  PM------------------------------------------
|------------------|-------------------------|
|------------------|-------------------------|
|------------------|-------------------------|
|-7-7-7-7-7-7-7-10-|-10-10-10-10-10-10-10-10-|
|-5-5-5-5-5-5-5--8-|--8--8--8--8--8--8--8--8-|
|-0-0-0-0-0-0-0----|-------------------------|


  Bb5           C5
 -----------------------------------------|
|------------------|-------------------------|
|------------------|-------------------------|
|------------------|-------------------------|
|------------------|-------------------------|
|-8-8-8-8-8-8-8-10-|-10-10-10-10-10-10-10-10-|
|-8-8-8-8-8-8-8-10-|-10-10-10-10-10-10-10-10-|


  D5                     F5
  Gtr I
|-------10------------10----|---------10------------10----|
|-13-------13-(13)-------15-|-(15)-------15-(15)-------13-|
|----14------------14-------|------14------------14-------|
|---------------------------|-----------------------------|
|---------------------------|-----------------------------|
|---------------------------|-----------------------------|
|
| Gtr II
|  PM------------------------------------------------------
|---------------------------|-----------------------------|
|---------------------------|-----------------------------|
|---------------------------|-----------------------------|
|---------------------------|-----------------------------|
|--0--0--0--0---0---0--0--3-|---3---3--3--3---3---3--3--3-|
|--0--0--0--0---0---0--0--3-|---3---3--3--3---3---3--3--3-|


  Bb5                      C5
|---------10------------10----|---------10------------10----|
|-(13)-------13-(13)-------15-|-(15)-------15-(15)-------13-|
|------14------------14-------|------14------------14-------|
|-----------------------------|-----------------------------|
|-----------------------------|-----------------------------|
|-----------------------------|-----------------------------|
|
|--------------------------------------------------------|
|-----------------------------|-----------------------------|
|-----------------------------|-----------------------------|
|-----------------------------|-----------------------------|
|---3---3--3--3---3---3--3--5-|---5---5--5--5---5---5--5--5-|
|---1---1--1--1---1---1--1--3-|---3---3--3--3---3---3--3--3-|
|-----------------------------|-----------------------------|


  D5                       F5 
|------------12-(12)-------10-|-(10)----10------------10----|
|-(13)----15------------15----|------------13-(13)-------13-|
|------14------------14-------|------14------------14-------|
|-----------------------------|-----------------------------|
|-----------------------------|-----------------------------|
|-----------------------------|-----------------------------|
|
|   PM-------------------------------------------------------
|-----------------------------|-----------------------------|
|-----------------------------|-----------------------------|
|-----------------------------|-----------------------------|
|---7---7--7--7---7---7--7-10-|--10--10-10-10--10--10-10-10-|
|---5---5--5--5---5---5--5--8-|---8---8--8--8---8---8--8--8-|
|---0---0--0--0---0---0--0----|-----------------------------|


  Bb5                      C5
|---------10------------10----|---------10------------10-(10)-|
|-(13)-------13-(13)-------15-|-(15)-------15-(15)------------|
|------14------------14-------|------14------------14---------|
|-----------------------------|-------------------------------|
|-----------------------------|-------------------------------|
|-----------------------------|-------------------------------|
|
|--------------------------------------------------------|
|-----------------------------|-------------------------------|
|-----------------------------|-------------------------------|
|-----------------------------|-------------------------------|
|-----------------------------|-------------------------------|
|---8---8--8--8---8---8--8-10-|--10--10-10-10--10--10-10--10--|
|---8---8--8--8---8---8--8-10-|--10--10-10-10--10--10-10--10--|


    D5                     F5
||--------10------------10----|---------10------------10----|
||o-13-------13-(13)-------15-|-(15)-------15-(15)-------13-|
||-----14------------14-------|------14------------14-------|
||----------------------------|-----------------------------|
||o---------------------------|-----------------------------|
||----------------------------|-----------------------------|
|
||----------------------------|-----------------------------|
||o---------------------------|-----------------------------|
||----------------------------|-----------------------------|
||---0--0--0--0---0---0--0--3-|--(3)--3--3--3---3---3--3--3-|
||o--0--0--0--0---0---0--0--3-|--(3)--3--3--3---3---3--3--3-|
||---0--0--0--0---0---0--0--3-|--(3)--3--3--3---3---3--3--3-|


  Bb5                      C5
|---------10------------10----|---------10------------10-----|
|-(13)-------13-(13)-------15-|-(15)-------15-(15)-------13--|
|------14------------14-------|------14------------14--------|
|-----------------------------|------------------------------|
|-----------------------------|------------------------------|
|-----------------------------|------------------------------|
|
|-----------------------------|------------------------------|
|-----------------------------|------------------------------|
|---3---3--3--3---3---3--3--5-|--(5)--5--5--5---5---5--5--5--|
|---3---3--3--3---3---3--3--5-|--(5)--5--5--5---5---5--5--5--|
|---1---1--1--1---1---1--1--3-|--(3)--3--3--3---3---3--3--3--|
|-----------------------------|------------------------------|


  D5                       F5
|------------12-(12)-------10-|-(10)----10------------10----|
|-(13)----15------------15----|------------13-(13)-------13-|
|------14------------14-------|------14------------14-------|
|-----------------------------|-----------------------------|
|-----------------------------|-----------------------------|
|-----------------------------|-----------------------------|
|
|-----------------------------|-----------------------------|
|-----------------------------|-----------------------------|
|--------------------------10-|-(10)-10-10-10--10--10-10-10-|
|---7---7--7--7---7---7--7-10-|-(10)-10-10-10--10--10-10-10-|
|---5---5--5--5---5---5--5--8-|--(8)--8--8--8---8---8--8--8-|
|---0---0--0--0---0---0--0----|-----------------------------|
 

  Bb5                      C5
|---------10------------10----|---------10------------10-(10)--||
|-(13)-------13-(13)-------15-|-(15)-------15-(15)------------o||
|------14------------14-------|------14------------14----------||
|-----------------------------|--------------------------------||
|-----------------------------|-------------------------------o||
|-----------------------------|--------------------------------||
|
|-----------------------------|--------------------------------||
|-----------------------------|-------------------------------o||
|-----------------------------|--------------------------------||
|---8---8--8--8---8---8--8-10-|-(10)-10-10-10--10--10-10--10---||
|---8---8--8--8---8---8--8-10-|-(10)-10-10-10--10--10-10--10--o||
|---8---8--8--8---8---8--8-10-|-(10)-10-10-10--10--10-10--10---||


  Bb5                     C5
  Gtrs I, II
|----------|------------|-----------|---------||
|----------|------------|-----------|---------||
|----------|------------|-----------|---------||
|-8--------|-(8)--------|-10--------|-(10)----||
|-8--------|-(8)--------|-10--------|-(10)----||
|-8--------|-(8)--------|-10--------|-(10)----||


   Interlude
    (DmD5            (Em)D5            (F) D5            (A5(Bb(C5)(Bb(A5)
   3/4                                                  5/4
    Gtr I
       PM--------|       PM--------|       PM--------|   TP TP  TP TP TP
||-----------------|-----------------|-----------------|------------------|
||o----------------|-----------------|-----------------|------------------|
||-----------------|-----------------|-----------------|------------------|
||-----------------|-----------------|-----------------|------------------|
||o-5--0-0-0-0-0-0-|--7--0-0-0-0-0-0-|--8--0-0-0-0-0-0-|-0--1---3--1--0---|
||-----0-0-0-0-0-0-|-----0-0-0-0-0-0-|-----0-0-0-0-0-0-|------------------|
|


 
|   Gtr II
|      PM--------|       PM--------|       PM--------|   TP TP  TP TP TP
||-----------------|-----------------|-----------------|------------------|
||o----------------|-----------------|-----------------|------------------|
||-----------------|-----------------|-----------------|------------------|
||-----------------|-----------------|-----------------|------------------|
||o-8--0-0-0-0-0-0-|-10--0-0-0-0-0-0-|-12--0-0-0-0-0-0-|-7--8--10--8--7---|
||-----0-0-0-0-0-0-|-----0-0-0-0-0-0-|-----0-0-0-0-0-0-|------------------|


  (DmD5            (Em)D5            (F) D5            (C5)(Bb(A5)
 3/4
     PM--------|       PM--------|       PM--------|
                                                                   4x
|----------------|-----------------|-----------------|-------------||
|----------------|-----------------|-----------------|------------o||
|----------------|-----------------|-----------------|-------------||
|----------------|-----------------|-----------------|-------------||
|-5--0-0-0-0-0-0-|--7--0-0-0-0-0-0-|--8--0-0-0-0-0-0-|--3--1--0---o||
|----0-0-0-0-0-0-|-----0-0-0-0-0-0-|-----0-0-0-0-0-0-|-------------||
|
|    PM--------|       PM--------|       PM--------|
|                                                                  4x
|----------------|-----------------|-----------------|-------------||
|----------------|-----------------|-----------------|------------o||
|----------------|-----------------|-----------------|-------------||
|----------------|-----------------|-----------------|-------------||
|-8--0-0-0-0-0-0-|-10--0-0-0-0-0-0-|-12--0-0-0-0-0-0-|-10--8--7---o||
|----0-0-0-0-0-0-|-----0-0-0-0-0-0-|-----0-0-0-0-0-0-|-------------||


 Outro
  Slower Q=148
  D5
 4/4
|------------------|--------------------|------------|---------------|
|------------------|--------------------|------------|---------------|
|------------------|--------------------|------------|---------------|
|-0----------------|-(0)----------------|-(0)--------|-(0)-----------|
|-0----------------|-(0)----------------|-(0)--------|-(0)-----------|
|-0----------------|-(0)----------------|-(0)--------|-(0)-----------| 
|
|------------------|--------------------|------------|---------------|
|------------------|--------------------|------------|---------------|
|------------------|--------------------|------------|---------------|
|-3----(3)-5-(5)-7-|--3-----(3)-5-(5)-7-|--2---------|--3-----5-3-2--|
|------------------|--------------------|------------|---------------|
|------------------|--------------------|------------|---------------|


  D5                                    N.C.        N.C.
|------------------|------------------|-----------|--------------|
|------------------|------------------|-----------|--------------|
|------------------|------------------|-----------|--------------|
|-0----------------|------------------|-10--------|-11-----------|
|-0----------------|------------------|--x--------|--x-----------|
|-0----------------|------------------|-10--------|-11-----------|
|
|------------------|------------------|-----------|--------------|
|------------------|------------------|-----------|--------------|
|------------------|------------------|-----------|--------------|
|-3----(3)-5-(5)-7-|-3----(3)-5-(5)-7-|--2--------|--3----5-3-2--|
|------------------|------------------|-----------|--------------|
|------------------|------------------|-----------|--------------|


    N.C.
                                                                  6x
||--------------------|------------------|----------|-------------||
||o-------------------|------------------|----------|------------o||
||--------------------|------------------|----------|-------------||
||--------------------|------------------|----------|-------------||
||o-/5----(5)-7-(7)-8-|-5----(5)-7-(7)-8-|-3--------|-0----3-0-3-o||
||--------------------|------------------|----------|-------------||
|
|                                                                 6x
||--------------------|------------------|----------|-------------||
||o-------------------|------------------|----------|------------o||
||--------------------|------------------|----------|-------------||
||---3----(3)-5-(5)-7-|-3----(3)-5-(5)-7-|-2--------|-3----5-3-2--||
||o-------------------|------------------|----------|------------o||
||--------------------|------------------|----------|-------------||


  N.C.                      D5
|------------|------------|----------|--------*|
|------------|------------|----------|--------*|
|------------|------------|----------|--------*|
|------------|------------|-0--------|-(0)----*|
|-(3)--------|-(3)--------|-0--------|-(0)----*|
|------------|------------|-0--------|-(0)----*|
|
|------------|------------|----------|--------*|
|------------|------------|----------|--------*|
|------------|------------|----------|--------*|
|-(2)--------|-(2)--------|-0--------|-(0)----*|
|------------|------------|-0--------|-(0)----*|
|------------|------------|-0--------|-(0)----*|
                                    
DILATED


Gtr I (C G C F A D) - 'Untitled'
Gtr II (C G C F A D) - 'Untitled'
Gtr III (C G C F A D) - 'Untitled'
Gtr IV (C G C F A D) - 'Untitled'
Gtr V (C G C F A D) - 'Untitled'

 Intro
  Fast Rock Q=194
  D5                N.C.  A5              N.C.  Bb5
 1/8   4/4
  Gtrs I, II
            PM----|               PM----|
|---||----------------------|---------------------|
|---||o---------------------|---------------------|
|---||--------------10-9----|-------------10-9----|
|-0-||--(0)---------------7-|-(7)---------------8-|
|-0-||o-(0)-0-0-0-0--8-7--7-|-(7)-7-7-7-7--8-7--8-|
|-0-||--(0)-0-0-0-0-------7-|-(7)-7-7-7-7-------8-|


              N.C.  G5                F5 D5
      PM----|               PM----|
|---------------------|---------------------||
|---------------------|--------------------o||
|-------------10-9----|---------------------||
|-(8)---------------5-|-(5)---------5-3--0--||
|-(8)-8-8-8-8--8-7--5-|-(5)-5-5-5-5-5-3--0-o||
|-(8)-8-8-8-8-------5-|-(5)-5-5-5-5-5-3--0--||


 Verse
                  A5                  Bb5
|-------------------|-------------------|
|-------------------|-------------------|
|-------------------|-------------------|
|-(0)-0-0-0-0-0-0-7-|-(7)-7-7-7-7-7-7-8-|
|-(0)-0-0-0-0-0-0-7-|-(7)-7-7-7-7-7-7-8-| 
|-(0)-0-0-0-0-0-0-7-|-(7)-7-7-7-7-7-7-8-|


                  G5              F5    D5
|-------------------|---------------------|
|-------------------|---------------------|
|-------------------|---------------------|
|-(8)-8-8-8-8-8-8-5-|-(5)-5-5-5-5-3-(3)-0-|
|-(8)-8-8-8-8-8-8-5-|-(5)-5-5-5-5-3-(3)-0-|
|-(8)-8-8-8-8-8-8-5-|-(5)-5-5-5-5-3-(3)-0-|


                  A5                  Bb5
  Gtr I
|-------------------|-------------------|
|-------------------|-------------------|
|-------------------|-------------------|
|-(0)-0-0-0-0-0-0-7-|-(7)-7-7-7-7-7-7-8-|
|-(0)-0-0-0-0-0-0-7-|-(7)-7-7-7-7-7-7-8-|
|-(0)-0-0-0-0-0-0-7-|-(7)-7-7-7-7-7-7-8-|
|
| Gtr II
|-------------------|-------------------|
|-------------------|-------------------|
|-------------------|-------------------|
|-(0)-0-0-0-0-0-0-7-|-(7)-7-7-7-7-7-7-8-|
|-(0)-0-0-0-0-0-0-7-|-(7)-7-7-7-7-7-7-8-|
|-(0)-0-0-0-0-0-0-7-|-(7)-7-7-7-7-7-7-8-|


                  G5              F5    N.C.
|-------------------|---------------------||
|-------------------|---------------------||
|-------------------|---------------------||
|-(8)-8-8-8-8-8-8-5-|-(5)-5-5-5-5-3-(3)-0-||
|-(8)-8-8-8-8-8-8-5-|-(5)-5-5-5-5-3-(3)---||
|-(8)-8-8-8-8-8-8-5-|-(5)-5-5-5-5-3-(3)---||
|
|-------------------|---------------------||
|-------------------|---------------------||
|-------------------|-------------------7-||
|-(8)-8-8-8-8-8-8-5-|-(5)-5-5-5-5-3-(3)---||
|-(8)-8-8-8-8-8-8-5-|-(5)-5-5-5-5-3-(3)---||
|-(8)-8-8-8-8-8-8-5-|-(5)-5-5-5-5-3-(3)---||


 Bridge
  N.C.
|-----------------|-----------------|-----------------|----------------|
|-----------------|-----------------|-----------------|----------------|
|-----------------|-----------------|-----------------|----------------|
|-(0)-----7-5-3-5-|-(5)-----7-5-3-3-|-(3)-----7-5-3---|--------2h=3--0-|
|-----------------|-----------------|---------------3-|-(3)------------|
|-----------------|-----------------|-----------------|----------------|
|
|-----------------|-----------------|-----------------|----------------|
|-----------------|-----------------|-----------------|----------------|
|-(7)----10-9-7-9-|-(9)----10-9-7---|--------10-9-7---|--------------7-|
|-----------------|---------------8-|-(8)-----------7-|-(7)----7h10----|
|-----------------|-----------------|-----------------|----------------|
|-----------------|-----------------|-----------------|----------------|


  N.C.                                                               D5
|-----------------|-----------------|-----------------|----------------||
|-----------------|-----------------|-----------------|----------------||
|-----------------|-----------------|-----------------|----------------||
|-(0)-----7-5-3-5-|-(5)-----7-5-3-3-|-(3)-----7-5-3---|--------2h=3----||
|-----------------|-----------------|---------------3-|-(3)------------||
|-----------------|-----------------|-----------------|--------------0-||
|
|-----------------|-----------------|-----------------|----------------||
|-----------------|-----------------|-----------------|----------------||
|-(7)----10-9-7-9-|-(9)----10-9-7---|--------10-9-7---|----------------||
|-----------------|---------------8-|-(8)-----------7-|-(7)----7h10--0-||
|-----------------|-----------------|-----------------|--------------0-||
|-----------------|-----------------|-----------------|--------------0-||


 Bridge
      PM------------------------------|
|-------------------|---------------------|
|-------------------|---------------------|
|-------------------|---------------------|
|-------------------|---------------------|
|-------5---3---5---|--8----7---7h8p7-----|
|-(0)-0---0---0---0-|-----0---0-------8-0-|
|
|-------------------|---------------------|
|-------------------|---------------------|
|-------------------|---------------------|
|-(0)---------------|-(0)-----------------|
|-(0)---------------|-(0)-----------------|
|-(0)---------------|-(0)-----------------|


                                           D5
      PM--------------------------------|
|-------------------|--------------------------|
|-------------------|--------------------------|
|-------------------|--------------------------|
|-------------------|--------------------------|
|-------5---3---5---|-13----12---8h10p8--------|
|-(0)-0---0---0---0-|-----0----0--------10-0---|
|
|-------------------|--------------------------|
|-------------------|--------------------------|
|-------------------|--------------------------|
|-(0)---------------|-(0)------------------0---|
|-(0)---------------|-(0)------------------0---|
|-(0)---------------|-(0)------------------0---|


        N.C.                                                  F5            N.C.
      PM----------------------------|         PM----------|
|-------------------|-------------------|-------------------|-----------------||
|-------------------|-------------------|-------------------|-----------------||
|-------------------|-------------------|-------------------|-----------------||
|-------------------|-------------------|-------------------|-3-3-3-3-3-3-3---||
|-------5---3---5---|-8---7---7h8p7-----|-------5---3---5---|-3-3-3-3-3-3-3---||
|-(0)-0---0---0---0-|---0---0-------8-0-|-(0)-0---0---0---0-|-3-3-3-3-3-3-3-0-|| 
|
|-------------------|-------------------|-------------------|-----------------||
|-------------------|-------------------|-------------------|-----------------||
|-------------------|-------------------|-------------------|-----------------||
|-(0)---------------|-------------------|-------------------|-3-3-3-3-3-3-3-0-||
|-(0)---------------|-------------------|-------------------|-3-3-3-3-3-3-3---||
|-(0)---------------|-------------------|-------------------|-3-3-3-3-3-3-3---||


 Interlude
  $
  N.C.
      PM---------------------------------|
|---------------------|-----------------------|
|---------------------|-----------------------|
|---------------------|-----------------------|
|---------------------|-----------------------|
|--------5---3----5---|--8----7---7h=8p7------|
|-(0)-0----0---0----0-|----0----0---------8-0-|
|



|     PM---------------------------------|
|---------------------|-----------------------|
|---------------------|-----------------------|
|-------10---9---10---|-12---10---9h10p9------|
|-(0)-0----0---0----0-|----0----0--------10-0-|
|---------------------|-----------------------|
|---------------------|-----------------------|


      PM-----------------------------------|
|---------------------|---------------------------|
|---------------------|---------------------------|
|---------------------|---------------------------|
|---------------------|---------------------------|
|--------5---3----5---|-13---12----8h10p=8--------|
|-(0)-0----0---0----0-|----0----0----------10-0---|
|
|     PM-----------------------------------|
|---------------------|---------------------------|
|---------------------|---------------------------|
|-------10---9---10---|-15---14---12h14p12-10-----|
|-(0)-0----0---0----0-|----0----0-------------0---|
|---------------------|---------------------------|
|---------------------|---------------------------|


  N.C.                                      G5
      PM---------------------------------|
|---------------------|-----------------------|
|---------------------|-----------------------|
|---------------------|-----------------------|
|---------------------|---------------------5-|
|--------5---3----5---|--8----7---7h=8p7----5-|
|-(0)-0----0---0----0-|----0----0---------8-5-|
|
|     PM---------------------------------|
|---------------------|-----------------------|
|---------------------|-----------------------|
|-------10---9---10---|-12---10---9h10p9------|
|-(0)-0----0---0----0-|----0----0--------10-5-|
|---------------------|---------------------5-|
|---------------------|---------------------5-|
                Bb5                   N.C.
        PM|       PM          PM|       PM
|---------------------|---------------------|
|---------------------|---------------------|
|---------------------|---------------------|
|-(5)-5-----5-(5)---8-|-(8)-8-----8-(8)-----|
|-(5)-5-5-5-5-(5)-5-8-|-(8)-8-8-8-8-(8)-8---|
|-(5)-5-5-5-5-(5)-5-8-|-(8)-8-8-8-8-(8)-8-0-|
|
|       PM|       PM          PM|       PM
|---------------------|---------------------|
|---------------------|---------------------|
|---------------------|---------------------|
|-(5)-5-----5-(5)---8-|-(8)-8-----8-(8)---0-|
|-(5)-5-5-5-5-(5)-5-8-|-(8)-8-8-8-8-(8)-8---|
|-(5)-5-5-5-5-(5)-5-8-|-(8)-8-8-8-8-(8)-8---|


  N.C.
      PM---------------------------------|
|---------------------|-----------------------|
|---------------------|-----------------------|
|---------------------|-----------------------|
|---------------------|-----------------------|
|--------5---3----5---|--8----7---7h=8p7------|
|-(0)-0----0---0----0-|----0----0---------8-0-|
|
|     PM---------------------------------|
|---------------------|-----------------------|
|---------------------|-----------------------|
|-------10---9---10---|-12---10---9h10p9------|
|-(0)-0----0---0----0-|----0----0--------10-0-|
|---------------------|-----------------------|
|---------------------|-----------------------|


      PM-----------------------------------|
|---------------------|---------------------------|
|---------------------|---------------------------|
|---------------------|---------------------------|
|---------------------|---------------------------|
|--------5---3----5---|-13---12----8h10p=8--------|
|-(0)-0----0---0----0-|----0----0----------10-0---|
|
|     PM-----------------------------------|
|---------------------|---------------------------|
|---------------------|---------------------------|
|-------10---9---10---|-15---14---12h14p12-10-----|
|-(0)-0----0---0----0-|----0----0-------------0---|
|---------------------|---------------------------|
|---------------------|---------------------------|


  N.C.                                      G5
      PM---------------------------------|
|---------------------|-----------------------|
|---------------------|-----------------------|
|---------------------|-----------------------|
|---------------------|---------------------5-|
|--------5---3----5---|--8----7---7h=8p7----5-|
|-(0)-0----0---0----0-|----0----0---------8-5-|
|
|     PM---------------------------------|
|---------------------|-----------------------|
|---------------------|-----------------------|
|-------10---9---10---|-12---10---9h10p9------|
|-(0)-0----0---0----0-|----0----0--------10-5-|
|---------------------|---------------------5-|
|---------------------|---------------------5-|


                                   To Coda
                    Bb5
        PM|       PM          PM|
|---------------------|---------------------||
|---------------------|---------------------||
|---------------------|---------------------||
|-(5)-5-----5-(5)---8-|-(8)-8-----8-(8)-8-8-||
|-(5)-5-5-5-5-(5)-5-8-|-(8)-8-8-8-8-(8)-8-8-||
|-(5)-5-5-5-5-(5)-5-8-|-(8)-8-8-8-8-(8)-8-8-||
|
|       PM|       PM          PM|
|---------------------|---------------------||
|---------------------|---------------------||
|---------------------|---------------------||
|-(5)-5-----5-(5)---8-|-(8)-8-----8-(8)-8-8-||
|-(5)-5-5-5-5-(5)-5-8-|-(8)-8-8-8-8-(8)-8-8-||
|-(5)-5-5-5-5-(5)-5-8-|-(8)-8-8-8-8-(8)-8-8-||


 Chorus
  G5  Gsus2                         Bb5 Bbsus2                               D5
  Gtrs I, II
  PM|                               PM|
|---------------|-----------------|-------------------|------------------------|
|---------------|-----------------|-------------------|------------------------|
|---------------|-----------------|-------------------|------------------------|
|-----7---7-7-7-|-7-7-7-7-7-7-7-7-|-----10---10-10-10-|-10-10-10-10-10-10-10-0-|
|-5-5-5---5-5-5-|-5-5-5-5-5-5-5-5-|-8-8--8----8--8--8-|--8--8--8--8--8--8--8-0-|
|-5-5-5---5-5-5-|-5-5-5-5-5-5-5-5-|-8-8--8----8--8--8-|--8--8--8--8--8--8--8-0-|


                                                E5
  Gtr I
|-----------------------|-------------------------|
|-------5-(5)---6-(6)-5-|-(5)-------5-(5)---------|
|-----5-------5---------|-----5-(5)-------5-(5)---|
|-(0)-------------------|-----------------------2-|
|-(0)-------------------|-------------------------|
|-(0)-------------------|-------------------------|
|
| Gtr II
|       PM----------------------------------|
|-----------------------|-------------------------|
|-----------------------|-------------------------|
|-----------------------|-------------------------|
|-(0)-0-----------------|-----------------------2-|
|-(0)-0-0--0--0-0--0--0-|--0--0--0--0--0--0--0--2-|
|-(0)-0-0--0--0-0--0--0-|--0--0--0--0--0--0--0--2-|


                        F5
|-------------------------|-------------------------|
|-----------5-(5)---------|-----------5-(5)---------|
|-----5-(5)-------5-(5)---|-----5-(5)-------5-(5)-5-|
|-(2)-------------------3-|-(3)---------------------|
|-------------------------|-------------------------|
|-------------------------|-------------------------|
|
|        PM---------|              PM---|
|-------------------------|-------------------------|
|-------------------------|-------------------------|
|-------------------------|-------------------------|
|-(2)-2-----------------3-|-(3)-3-----------3--3--3-|
|-(2)-2--2--2--2--2--2--3-|-(3)-3--3--3--3--3--3--3-|
|-(2)-2--2--2--2--2--2--3-|-(3)-3--3--3--3--3--3--3-|


  G5  Gsus2                         Bb5 Bbsus2                               D5
  Gtrs I, II
  PM|                               PM|
|---------------|-----------------|-------------------|------------------------|
|---------------|-----------------|-------------------|------------------------|
|---------------|-----------------|-------------------|------------------------|
|-----7---7-7-7-|-7-7-7-7-7-7-7-7-|-----10---10-10-10-|-10-10-10-10-10-10-10-0-|
|-5-5-5---5-5-5-|-5-5-5-5-5-5-5-5-|-8-8--8----8--8--8-|--8--8--8--8--8--8--8-0-|
|-5-5-5---5-5-5-|-5-5-5-5-5-5-5-5-|-8-8--8----8--8--8-|--8--8--8--8--8--8--8-0-|


                                                                D.S. al Coda
                                    E5                  F5                  D5
        PM------------------------|           PM------|           PM--|
|-------------------|-----------------|-------------------|-------------------||
|-------------------|-----------------|-------------------|-------------------||
|-------------------|-----------------|-------------------|-------------------||
|-(0)-0-------------|---------------2-|-(2)-2-----------3-|-(3)-3-------3-3-0-||
|-(0)-0-0-0-0-0-0-0-|-0-0-0-0-0-0-0-2-|-(2)-2-2-2-2-2-2-3-|-(3)-3-3-3-3-3-3-0-||
|-(0)-0-0-0-0-0-0-0-|-0-0-0-0-0-0-0-2-|-(2)-2-2-2-2-2-2-3-|-(3)-3-3-3-3-3-3-0-||


 Breakdown
  Q=82
  &
  D5
  Gtrs I, II
|----------|--------|
|----------|--------|
|----------|--------|
|-0--------|-(0)----|
|-0--------|-(0)----|
|-0--------|-(0)----|
  D5  N.C.
  Gtr III
|-----------------------------------|----------------------------------|
|-----------------------------------|----------------------------------|
|-------------------------4h5p4-----|----------------------------------|
|---------------5---3-----------5---|---------5-----5---------5--------|
|-----3---5-------------------------|-----3-----3---------3-----3---3--|
|-0-0---0---0-0---0---0-0---------0-|-5-5---5-----5---3-3---3-----3----|
|
| Gtr II
|-----------------------------------|----------------------------------|
|-----------------------------------|----------------------------------|
|-----------------------------------|----------------------------------|
|-0---------------------------------|----------------------------------|
|-0---------------------------------|----------------------------------|
|-0---------------------------------|----------------------------------|


  N.C.
|-----------------------------------|----------------------------------||
|-----------------------------------|----------------------------------||
|-----------------------------------|----------------------------------||
|---------------3---2-----2h3p2-----|---------5-----5---------5--------||
|-----3---5---------------------3p0-|-----3-----3---------3-----3---3--||
|-0-0---0---0-0---0---0-0-----------|-5-5---5-----5---3-3---3-----3----||
|
|-----------------------------------|----------------------------------||
|-----------------------------------|----------------------------------||
|-----------------------------------|----------------------------------||
|-----------------------------------|----------------------------------||
|-----------------------------------|----------------------------------||
|-----------------------------------|----------------------------------||


   Guitar Break
    N.C.
    Gtr III
||--------------------------------------|
||o-------------------------------------|
||----------------------------4h5p4-----|
||----------------5-----3-----------5---|
||o-----3---5---------------------------|
||--0-0---0---0-0----0----0-0---------0-|
|
|   Gtr IV
||--------------------------------------|
||o---------8-----------------8---------|
||------9-----9---9-(9)---9-------9---9-|
||--0-0---0-----0-------0---0-------0---|
||o-------------------------------------|
||--------------------------------------|


|-----------------------------------------------|
|-----------------------------------------------|
|-----------------------------------------------|
|---------5-----------5-----------5-------------|
|-----3------3----------------3------3--------3-|
|-5-5---5----------5-----3--3---3----------3----|
|
|-----------------------------------------------|
|---------5-(5)b6r(5)-------------5-(5)b6r(5)---|
|-----5---------------5-(5)-------------------5-|
|-3---------------------------3-----------------|
|-----------------------------------------------|
|-----------------------------------------------|
  N.C.
|-------------------------------------|
|-------------------------------------|
|-------------------------------------|
|---------------3-----2-----2h3p2-----|
|-----3---5-----------------------3p0-|
|-0-0---0---0-0----0----0-0-----------|
|
|-------------------------------------|
|---------8-----------------8---------|
|-----9-----9---9-(9)---9-------9---9-|
|-0-0---0-----0-------0---0-------0---|
|-------------------------------------|
|-------------------------------------|


                                                  4x
|-------------------------------------------------||
|------------------------------------------------o||
|-------------------------------------------------||
|---------5-----------5-----------5---------------||
|-----3------3----------------3------3--------3--o||
|-5-5---5----------5-----3--3---3----------3------||
|
|                                                 4x
|-------------------------------------------------||
|---------5-(5)b6r(5)-------------5-(5)b6r(5)----o||
|-----5---------------5-(5)-------------------5---||
|-3---------------------------3-------------------||
|------------------------------------------------o||
|-------------------------------------------------||


  4.
  N.C.                                  G5              Bb5
                                        Gtr I
                                          PM--|
|-------------------------------------|----------------------------------||
|-------------------------------------|----------------------------------||
|-------------------------------------|----------------------------------||
|---------------3-----2-----2h3p2-----|-5-------5-5-5-5S8-8-8-8-8-8-8-8--||
|-----3---5-----------------------3p0-|-5-5-5-5-5-5-5-5S8-8-8-8-8-8-8-8--||
|-0-0---0---0-0----0----0-0-----------|-5-5-5-5-5-5-5-5S8-8-8-8-8-8-8-8--||
|
|                                       Gtr II
|                                         PM--|
|-------------------------------------|----------------------------------||
|---------8-----------------8---------|----------------------------------||
|-----9-----9---9-(9)---9-------9---9-|----------------------------------||
|-0-0---0-----0-------0---0-------0---|-5-------5-5-5-5S8-8-8-8-8-8-8-8--||
|-------------------------------------|-5-5-5-5-5-5-5-5S8-8-8-8-8-8-8-8--||
|-------------------------------------|-5-5-5-5-5-5-5-5S8-8-8-8-8-8-8-8--||


 Interlude
  D5                                  G5              F5
  PM----------------------------------------------------------------|
|-----------------------------------|----------------------------------|
|-----------------------------------|----------------------------------|
|-------------------------4h5p4-----|----------------------------------|
|---------------5---3-----------5---|---------5-----5---------5--------|
|-----3---5-------------------------|-----3-----3---------3-----3---3--|
|-0-0---0---0-0---0---0-0---------0-|-5-5---5-----5---3-3---3-----3----|
|
|-----------------------------------|----------------------------------|
|-----------------------------------|----------------------------------|
|-----------------------------------|----------------------------------|
|-0-0-0-0-0-0-0-0-0-0-0-0-0---0-0-0-|-5-5-5-5-5-5-5-5-3-3-3-3-3-3-3-3--|
|-0-0-0-0-0-0-0-0-0-0-0-0-0---0-0-0-|-5-5-5-5-5-5-5-5-3-3-3-3-3-3-3-3--|
|-0-0-0-0-0-0-0-0-0-0-0-0-0---0-0-0-|-5-5-5-5-5-5-5-5-3-3-3-3-3-3-3-3--|


  D5                                  G5              Bb5
  PM----------------------------------------------------------------|
|-----------------------------------|----------------------------------|
|-----------------------------------|----------------------------------|
|-----------------------------------|----------------------------------|
|---------------3---2-----2h3p2-----|---------5-----5---------5--------|
|-----3---5---------------------3p0-|-----3-----3---------3-----3---3--|
|-0-0---0---0-0---0---0-0-----------|-5-5---5-----5---3-3---3-----3----|
|
|-----------------------------------|----------------------------------|
|-----------------------------------|----------------------------------|
|-----------------------------------|----------------------------------|
|-0-0-0-0-0-0-0-0-0-0-0-0-0---0-0-0-|-5-5-5-5-5-5-5-5-8-8-8-8-8-8-8-8--|
|-0-0-0-0-0-0-0-0-0-0-0-0-0---0-0-0-|-5-5-5-5-5-5-5-5-8-8-8-8-8-8-8-8--|
|-0-0-0-0-0-0-0-0-0-0-0-0-0---0-0-0-|-5-5-5-5-5-5-5-5-8-8-8-8-8-8-8-8--|


  D5                                  G5              F5
  PM----------------------------------------------------------------|
|-----------------------------------|----------------------------------|
|-----------------------------------|----------------------------------|
|-------------------------4h5p4-----|----------------------------------|
|---------------5---3-----------5---|---------5-----5---------5--------|
|-----3---5-------------------------|-----3-----3---------3-----3---3--|
|-0-0---0---0-0---0---0-0---------0-|-5-5---5-----5---3-3---3-----3----|
|
| PM----------------------------------------------------------------|
|-----------------------------------|----------------------------------|
|-----------------------------------|----------------------------------|
|-----------------------------------|----------------------------------|
|-----------------------------------|----------------------------------|
|-0-0-0-0-0-0-0-0-0-0-0-0-0---0-0-0-|-5-5-5-5-5-5-5-5-3-3-3-3-3-3-3-3--|
|-0-0-0-0-0-0-0-0-0-0-0-0-0---0-0-0-|-5-5-5-5-5-5-5-5-3-3-3-3-3-3-3-3--|
 D5                                  G5   Bb5 D5
  PM------------------------------|
|-----------------------------------|------------||
|-----------------------------------|------------||
|-----------------------------------|----------7-||
|---------------3---2-----2h3p2-----|-5----8---7-||
|-----3---5---------------------3p0-|-5----8---5-||
|-0-0---0---0-0---0---0-0-----------|-5----8-----||
|
| PM------------------------------|
|-----------------------------------|------------||
|-----------------------------------|------------||
|-----------------------------------|------------||
|-----------------------------------|-5----8---0-||
|-0-0-0-0-0-0-0-0-0-0-0-0-0---0-0-0-|-5----8---0-||
|-0-0-0-0-0-0-0-0-0-0-0-0-0---0-0-0-|-5----8---0-||


  a Tempo Q=194
           N.C.  A5/E         N.C.  Bb5/F
  Gtr I
|------------------|-------------------|
|------------------|-------------------|
|-(7)-7-7--10s9--9-|-(9)-9-9--10s9--10-|
|-(7)-7-7--------7-|-(7)-7-7---------8-|
|-(5)-5-5---8s7--7-|-(7)-7-7---8s7---8-|
|------------------|-------------------|
|
| Gtr II
|------------------|-------------------|
|------------------|-------------------|
|------------------|-------------------|
|-(0)--------------|-(0)---------------|
|-(0)--------------|-(0)---------------|
|-(0)--------------|-(0)---------------|


              N.C.  G5/D           F5/C  D5
|---------------------|--------------------||
|---------------------|--------------------||
|-(10)-10-10--10s9--7-|-(7)-7-7--7s5-(5)-7-||
|--(8)--8--8--------5-|-(5)-5-5--5s3-(3)-7-||
|--(8)--8--8---8s7--5-|-(5)-5-5--5s3-(3)-5-||
|---------------------|--------------------||
|
|---------------------|--------------------||
|---------------------|--------------------||
|---------------------|--------------------||
|--(0)----------------|-(0)--------------0-||
|--(0)----------------|-(0)--------------0-||
|--(0)----------------|-(0)--------------0-||


 Outro/Guitar Solo
  D5             A5                 Bb5
  Gtr I
|------------------|-------------------|
|------------------|-------------------|
|-(7)-7-7--10s9--9-|-(9)-9-9--10s9--10-|
|-(7)-7-7--------7-|-(7)-7-7---------8-|
|-(5)-5-5---8s7--7-|-(7)-7-7---8s7---8-|
|------------------|-------------------|
|
| Gtr II
|------------------|-------------------|
|------------------|-------------------|
|------------------|-------------------|
|-(0)------------7-|-(7)-------------8-|
|-(0)------------7-|-(7)-------------8-|
|-(0)------------7-|-(7)-------------8-|
|

| Gtr V
|------------------|-------------------|
|------------------|-------------------|
|------------------|-------------------|
|------------------|-------------------|
|------------------|-------------------|
|------------------|-------------------|


                    G5                   D5
|---------------------|--------------------|
|---------------------|--------------------|
|-(10)-10-10--10s9--7-|-(7)-7-7--7s5-(5)---|
|--(8)--8--8--------5-|-(5)-5-5--5s3-(3)-0-|
|--(8)--8--8---8s7--5-|-(5)-5-5--5s3-(3)---|
|---------------------|--------------------|
|
|---------------------|--------------------|
|---------------------|--------------------|
|---------------------|--------------------|
|--(8)--------------5-|-(5)--------------0-|
|--(8)--------------5-|-(5)--------------0-|
|--(8)--------------5-|-(5)--------------0-|
|
|---------------------|--------------------|
|---------------------|--------------------|
|---------------------|------------------7-|
|---------------------|--------------------|
|---------------------|--------------------|
|---------------------|--------------------|


                   A5                   Bb5
|--------------------|--------------------|
|--------------------|--------------------|
|--------------------|--------------------|
|-(0)--------7-5-3-5-|-(5)--------7-5-3-3-|
|--------------------|--------------------|
|--------------------|--------------------|
|
|--------------------|--------------------|
|--------------------|--------------------|
|--------------------|--------------------|
|-(0)-0-0-0--0-0-0-7-|-(7)-7-7-7--7-7-7-8-|
|-(0)-0-0-0--0-0-0-7-|-(7)-7-7-7--7-7-7-8-|
|-(0)-0-0-0--0-0-0-7-|-(7)-7-7-7--7-7-7-8-|
|
|--------------------|--------------------|
|--------------------|--------------------|
|-(7)-------10-9-7-9-|-(9)-------10-9-7---|
|--------------------|------------------8-|
|--------------------|--------------------|
|--------------------|--------------------|




                   C5                          D5
|---------------------|--------------------------|
|---------------------|--------------------------|
|---------------------|--------------------------|
|-(3)--------7-5-3----|----------------2h=3----0-|
|-------------------3-|--(3)---------------------|
|---------------------|--------------------------|
|
|---------------------|--------------------------|
|---------------------|--------------------------|
|---------------------|--------------------------|
|-(8)-8-8-8--8-8-8-10-|-(10)-10-10-10-10-10-10-0-|
|-(8)-8-8-8--8-8-8-10-|-(10)-10-10-10-10-10-10-0-|
|-(8)-8-8-8--8-8-8-10-|-(10)-10-10-10-10-10-10-0-|
|
|---------------------|--------------------------|
|---------------------|--------------------------|
|-----------10-9-7----|------------------------7-|
|-(8)---------------7-|--(7)-----------7h10------|
|---------------------|--------------------------|
|---------------------|--------------------------|


                   A5                   Bb5
|--------------------|----------------------|
|--------------------|----------------------|
|--------------------|----------------------|
|-(0)--------7-5-3-5-|-(5)--------7-5-3--/8-|
|--------------------|----------------------|
|--------------------|----------------------|
|
|--------------------|----------------------|
|--------------------|----------------------|
|--------------------|----------------------|
|-(0)-0-0-0--0-0-0-7-|-(7)-7-7-7--7-7-7---8-|
|-(0)-0-0-0--0-0-0-7-|-(7)-7-7-7--7-7-7---8-|
|-(0)-0-0-0--0-0-0-7-|-(7)-7-7-7--7-7-7---8-|
|
|--------------------|----------------------|
|--------------------|----------------------|
|-(7)-------10-9-7-9-|-(9)-------10-9-7-/12-|
|--------------------|----------------------|
|--------------------|----------------------|
|--------------------|----------------------|
              C5                           D5
|-----------------------|--------------------------|
|-----------------------|--------------------------|
|-----------------------|--------------------------|
|--(8)----7---5p3---/10-|-(10)-----8-----7h=8----0-|
|-----------------------|--------------------------|
|-----------------------|--------------------------|
|
|-----------------------|--------------------------|
|-----------------------|--------------------------|
|-----------------------|--------------------------|
|--(8)-8--8-8-8-8-8--10-|-(10)-10-10-10-10-10-10-0-|
|--(8)-8--8-8-8-8-8--10-|-(10)-10-10-10-10-10-10-0-|
|--(8)-8--8-8-8-8-8--10-|-(10)-10-10-10-10-10-10-0-|
|
|-----------------------|--------------------------|
|-----------------------|--------------------------|
|-(12)---10---9p7---/14-|-(14)----12----10h12----7-|
|-----------------------|--------------------------|
|-----------------------|--------------------------|
|-----------------------|--------------------------|


                   A5                   Bb5
|--------------------|--------------------|
|--------------------|--------------------|
|--------------------|--------------------|
|-(0)-------8----7-5-|-(5)-------8----7-3-|
|--------------------|--------------------|
|--------------------|--------------------|
|
|--------------------|--------------------|
|--------------------|--------------------|
|--------------------|--------------------|
|-(0)-0-0-0-0-0--0-7-|-(7)-7-7-7-7-7--7-8-|
|-(0)-0-0-0-0-0--0-7-|-(7)-7-7-7-7-7--7-8-|
|-(0)-0-0-0-0-0--0-7-|-(7)-7-7-7-7-7--7-8-|
|
|--------------------|--------------------|
|--------------------|--------------------|
|-(7)-------9---10-5-|-(5)-------9---10---|
|--------------------|------------------8-|
|--------------------|--------------------|
|--------------------|--------------------|


                   C5                          D5
|---------------------|--------------------------|
|---------------------|--------------------------|
|---------------------|--------------------------|
|-(3)-------8----7--2-|--(2)-----------2h=3----0-|
|---------------------|--------------------------|
|---------------------|--------------------------|
|
|---------------------|--------------------------|
|---------------------|--------------------------|
|---------------------|--------------------------|
|-(8)-8-8-8-8-8--8-10-|-(10)-10-10-10-10-10-10-0-|
|-(8)-8-8-8-8-8--8-10-|-(10)-10-10-10-10-10-10-0-|
|-(8)-8-8-8-8-8--8-10-|-(10)-10-10-10-10-10-10-0-|
|
|---------------------|--------------------------|
|---------------------|--------------------------|
|-----------9---10--5-|--(5)-----------9h10----7-|
|-(8)-----------------|--------------------------|
|---------------------|--------------------------|
|---------------------|--------------------------|


  
                 A5                   Bb5
|--------------------|--------------------|
|--------------------|--------------------|
|--------------------|--------------------|
|-(0)-------8----7-5-|-(5)-------8----7-3-|
|--------------------|--------------------|
|--------------------|--------------------|
|
|--------------------|--------------------|
|--------------------|--------------------|
|--------------------|--------------------|
|-(0)-0-0-0-0-0--0-7-|-(7)-7-7-7-7-7--7-8-|
|-(0)-0-0-0-0-0--0-7-|-(7)-7-7-7-7-7--7-8-|
|-(0)-0-0-0-0-0--0-7-|-(7)-7-7-7-7-7--7-8-|
|
|--------------------|--------------------|
|--------------------|--------------------|
|-(7)-------9---10-5-|-(5)-------9---10---|
|--------------------|------------------8-|
|--------------------|--------------------|
|--------------------|--------------------|


                   C5                          D5
|---------------------|---------------------------|
|---------------------|---------------------------|
|---------------------|---------------------------|
|-(3)-------8----7-10-|-(10)-----8-----7h=8-------|
|---------------------|-------------------------5-|
|---------------------|-------------------------0-|
|
|---------------------|---------------------------|
|---------------------|---------------------------|
|---------------------|---------------------------|
|-(8)-8-8-8-8-8--8-10-|-(10)-10-10-10-10-10-10--0-|
|-(8)-8-8-8-8-8--8-10-|-(10)-10-10-10-10-10-10--0-|
|-(8)-8-8-8-8-8--8-10-|-(10)-10-10-10-10-10-10--0-|
|
|---------------------|---------------------------|
|---------------------|---------------------------|
|-----------9---10--5-|--(5)-----------9h10----/7-|
|-(8)-----------------|---------------------------|
|---------------------|------------------------/5-|
|---------------------|---------------------------|                            
   ~~~                 ~~~
|-------------------|--------------------|
|-------------------|--------------------|
|-------------------|--------------------|
|-----------------2-|-(2)--------------3-|
|-(5)---------------|--------------------|
|-(0)-------------2-|-(2)--------------3-|
|
|-------------------|--------------------|
|-------------------|--------------------|
|-------------------|--------------------|
|-(0)-0-0-0-0-0-0-7-|-(7)-7-7-7-7-7-7--8-|
|-(0)-0-0-0-0-0-0-7-|-(7)-7-7-7-7-7-7--8-|
|-(0)-0-0-0-0-0-0-7-|-(7)-7-7-7-7-7-7--8-|

|                      ~~~
|-------------------|--------------------|
|-------------------|--------------------|
|-(7)-------------9-|-(9)-------------10-|
|-------------------|--------------------|
|-(5)-------------7-|-(7)--------------8-|
|-------------------|--------------------|


                   C5                          D5
    ~~~~                  ~~~~
|---------------------|--------------------------|
|---------------------|--------------------------|
|---------------------|--------------------------|
|--(3)--------------5-|--(5)---------------------|
|---------------------|------------------------5-|
|--(3)--------------5-|--(5)-------------------0-|
|
|---------------------|--------------------------|
|---------------------|--------------------------|
|---------------------|--------------------------|
|--(8)-8-8-8-8-8-8-10-|-(10)-10-10-10-10-10-10-0-|
|--(8)-8-8-8-8-8-8-10-|-(10)-10-10-10-10-10-10-0-|
|--(8)-8-8-8-8-8-8-10-|-(10)-10-10-10-10-10-10-0-|
|
|   ~~~~                  ~~~~
|---------------------|--------------------------|
|---------------------|--------------------------|
|-(10)-------------12-|-(12)---------------------|
|---------------------|--------------------------|
|--(8)-------------10-|-(10)-------------------5-|
|---------------------|--------------------------|


                          A5                           Bb5
   ~~~                         ~~~
|---------------------------|-----------------------------|
|---------------------------|-----------------------------|
|---------------------------|-----------------------------|
|-------------------------2-|-(2)-----------------------3-|
|-(5)-----------------------|-----------------------------|
|-(0)---------------------2-|-(2)-----------------------3-|
|
|---------------------------|-----------------------------|
|---------------------------|-----------------------------|
|---------------------------|-----------------------------|
|-(0)-0-0---0---0---0---0-7-|-(7)-7-7---7---7---7----7--8-|
|-(0)-0-0---0---0---0---0-7-|-(7)-7-7---7---7---7----7--8-|
|-(0)-0-0---0---0---0---0-7-|-(7)-7-7---7---7---7----7--8-|
|
|---------------------------|-----------------------------|
|---------------------------|-----------------------------|
|-----------------------5---|---------------5h7h==9-12-10-|
|---------------5h7h==8---8-|-(8)---5h7h==8---------------|
|-(5)---5h7h==8-------------|-----------------------------|
|---------------------------|-----------------------------|


                          C5                               D5
    ~~~~                         ~~~~
|----------------------------|----------------------------------|
|----------------------------|----------------------------------|
|----------------------------|----------------------------------|
|--(3)---------------------5-|--(5)--------------------------0--|
|----------------------------|-------------------------------0--|
|--(3)---------------------5-|--(5)--------------------------0--|
| 
|----------------------------|----------------------------------|
|----------------------------|----------------------------------|
|----------------------------|----------------------------------|
|--(8)--8--8-8--8--8---8--10-|-(10)-10-10-10-10----10--10----0--|
|--(8)--8--8-8--8--8---8--10-|-(10)-10-10-10-10----10--10----0--|
|--(8)--8--8-8--8--8---8--10-|-(10)-10-10-10-10----10--10----0--|
|
|          ~~      ~~~~~~~              ~~          ~~~~~~~
|----------------------------|-----------------------------/10--|
|----------------------------|----------------------------------|
|-(10)-10-10---10-10-(10)--9-|--(9)--9--9-----9b10r(9)-(9)------|
|----------------------------|----------------------------------|
|----------------------------|----------------------------------|
|----------------------------|----------------------------------|


                   A5                       Bb5
|----------------------|-----------------------|
|----------------------|-----------------------|
|----------------------|-----------------------|
|--(0)-0-0-0-0-0-0---7-|--(7)-7--7-7--7-7-7--8-|
|--(0)-0-0-0-0-0-0---7-|--(7)-7--7-7--7-7-7--8-|
|--(0)-0-0-0-0-0-0---7-|--(7)-7--7-7--7-7-7--8-|
|
|----------------------|-----------------------|
|----------------------|-----------------------|
|----------------------|-----------------------|
|--(0)-0-0-0-0-0-0---7-|--(7)-7--7-7--7-7-7--8-|
|--(0)-0-0-0-0-0-0---7-|--(7)-7--7-7--7-7-7--8-|
|--(0)-0-0-0-0-0-0---7-|--(7)-7--7-7--7-7-7--8-|
|
|-(10)-------------/13-|-(13)---12---10---8-10-|
|----------------------|-----------------------|
|----------------------|-----------------------|
|----------------------|-----------------------|
|----------------------|-----------------------|
|----------------------|-----------------------|


                   C5                                 D5
|----------------------|------------------------------------|
|----------------------|------------------------------------|
|----------------------|------------------------------------|
|--(8)-8-8-8-8-8-8--10-|-(10)-10-10-10-10----10----10---0---|
|--(8)-8-8-8-8-8-8--10-|-(10)-10-10-10-10----10----10---0---|
|--(8)-8-8-8-8-8-8--10-|-(10)-10-10-10-10----10----10---0---|
|
|----------------------|------------------------------------|
|----------------------|------------------------------------|
|----------------------|------------------------------------|
|--(8)-8-8-8-8-8-8--10-|-(10)-10-10-10-10----10----10---0---|
|--(8)-8-8-8-8-8-8--10-|-(10)-10-10-10-10----10----10---0---|
|--(8)-8-8-8-8-8-8--10-|-(10)-10-10-10-10----10----10---0---|
|
|-(10)-------------/17-|-(17)----15----12h13p===12----/10---|
|----------------------|---------------------------13-------|
|----------------------|------------------------------------|
|----------------------|------------------------------------|
|----------------------|------------------------------------|
|----------------------|------------------------------------|

             A5                       Bb5
|---------------------|-----------------------|
|---------------------|-----------------------|
|---------------------|-----------------------|
|-(0)-0-0-0-0-0-0---7-|--(7)-7--7-7--7-7-7--8-|
|-(0)-0-0-0-0-0-0---7-|--(7)-7--7-7--7-7-7--8-|
|-(0)-0-0-0-0-0-0---7-|--(7)-7--7-7--7-7-7--8-|
|
|---------------------|-----------------------|
|---------------------|-----------------------|
|---------------------|-----------------------|
|-(0)-0-0-0-0-0-0---7-|--(7)-7--7-7--7-7-7--8-|
|-(0)-0-0-0-0-0-0---7-|--(7)-7--7-7--7-7-7--8-|
|-(0)-0-0-0-0-0-0---7-|--(7)-7--7-7--7-7-7--8-|
|
|-10--------------/13-|-(13)---12---10---8-10-|
|---------------------|-----------------------|
|---------------------|-----------------------|
|---------------------|-----------------------|
|---------------------|-----------------------|
|---------------------|-----------------------|

|---------------------|----------------------------------|
|---------------------|----------------------------------|
|---------------------|----------------------------------|
|--(8)-8-8-8-8-8-8-10-|-(10)--10---10---10---10-10-10-12-|
|--(8)-8-8-8-8-8-8-10-|-(10)--10---10---10---10-10-10-12-|
|--(8)-8-8-8-8-8-8-10-|-(10)--10---10---10---10-10-10-12-|
|
|---------------------|----------------------------------|
|---------------------|----------------------------------|
|---------------------|----------------------------------|
|--(8)-8-8-8-8-8-8-10-|-(10)--10---10---10---10-10-10-12-|
|--(8)-8-8-8-8-8-8-10-|-(10)--10---10---10---10-10-10-12-|
|--(8)-8-8-8-8-8-8-10-|-(10)--10---10---10---10-10-10-12-|
|
|-(10)----------------|-----------------------5h=6p=5----|
|---------------------|-------------5h6h===8-------------|
|---------------------|---5h7h===9---------------------7-|
|---------------------|----------------------------------|
|---------------------|----------------------------------|
|---------------------|----------------------------------|


  D5
|--------------|-----*|
|--------------|-----*|
|--------------|-----*|
|-(12)\--------|-----*|
|-(12)\--------|-----*|
|-(12)\--------|-----*|
|
|--------------|-----*|
|--------------|-----*|
|--------------|-----*|
|-(12)\--------|-----*|
|-(12)\--------|-----*|
|-(12)\--------|-----*|
|
|--------------|-----*|
|--------------|-----*|
|--(7)\--------|-----*|
|--------------|-----*|
|--------------|-----*|
|--------------|-----*|

                                AIN'T LOVE GRAND
                

Gtr I (C G C F A D) - 'Untitled'
Gtr II (C G C F A D) - 'Untitled'

 Intro
  Moderate Rock Q=104
  N.C.
 4/4
  Gtr I
|-----|
|-----|
|-----|
|-----|
|-----|
|-----|


    N.C.
||-------------------------------------|-------------------------------------||
||o------------------------------------|------------------------------------o||
||------9---9-10---9-(9)---9---12-10-9-|-----9---9-10---9-(9)---9---10-9-7---||
||--0-0---0------0-------0---0---------|-0-0---0------0-------0---0----------||
||o------------------------------------|------------------------------------o||
||-------------------------------------|-------------------------------------||


   Chorus
    $
    D5             F5
    Gtr I
||-----------------------------------------|
||o----------------------------------------|
||------9---9-10---9-(9)---9-----12-10-9---|
||--0-0---0------0-------0----0------------|
||o----------------------------------------|
||-----------------------------------------|
|
|   Gtr II
||-----------------------------------------|
||o----------------------------------------|
||-----------------------------------------|
||--0---0---0--0-0-3-(3)-3-3-(3)--3--3-3-3-|
||o-0---0---0--0-0-3-(3)-3-3-(3)--3--3-3-3-|
||--0---0---0--0-0-3-(3)-3-3-(3)--3--3-3-3-|


  C5                 Bb5
                                              4x
|---------------------------------------------||
|--------------------------------------------o||
|-------9----9-10----9-(9)---9-----10-9-7-----||
|--0-0----0--------0-------0----0-------------||
|--------------------------------------------o||
|---------------------------------------------||
|
|                                             4x
|---------------------------------------------||
|--------------------------------------------o||
|---------------------------------------------||
|-10---10---10-10-10-8-(8)-8-8-(8)--8-8-8-8---||
|-10---10---10-10-10-8-(8)-8-8-(8)--8-8-8-8--o||
|-10---10---10-10-10-8-(8)-8-8-(8)--8-8-8-8---||


 Verse
  (Bbsus2)
  PM|    PM|    PM   PM|    PM|    PM
|---------------------------------------|
|---------------------------------------|
|-----10-----10---10-----10-----10---10-|
|-----10-----10---10-----10-----10---10-|
|-8-8----8-8----8----8-8----8-8----8----|
|-8-8----8-8----8----8-8----8-8----8----|
|
|---------------------------------------|
|---------------------------------------|
|-x-x-10-x-x-10-x-10-x-x-10-x-x-10-x-10-|
|-x-x--x-x-x--x-x--x-x-x--x-x-x--x-x--x-|
|-x-x--8-x-x--8-x--8-x-x--8-x-x--8-x--8-|
|---------------------------------------|
  PM|    PM|    PM   PM|    PM|    PM
|---------------------------------------|
|---------------------------------------|
|-----10-----10---10-----10-----10---10-|
|-----10-----10---10-----10-----10---10-|
|-0-0----0-0----0----0-0----0-0----0----|
|-0-0----0-0----0----0-0----0-0----0----|
|
|---------------------------------------|
|---------------------------------------|
|-x-x-10-x-x-10-x-10-x-x-10-x-x-10-x-10-|
|-x-x--x-x-x--x-x--x-x-x--x-x-x--x-x--x-|
|-x-x--8-x-x--8-x--8-x-x--8-x-x--8-x--8-|
|---------------------------------------|


  (Bbsus2)
  PM|       PM   PM   PM|    PM|    PM
|----------------------------------------|
|----------------------------------------|
|-----10-10---10---10-----10-----10---10-|
|-----10-10---10---10-----10-----10---10-|
|-8-8-------8----8----8-8----8-8----8----|
|-8-8-------8----8----8-8----8-8----8----|
|
|----------------------------------------|
|----------------------------------------|
|-x-x-10--x-x-10-x-10-x-x-10-x-x-10-x-10-|
|-x-x--x--x-x--x-x--x-x-x--x-x-x--x-x--x-|
|-x-x--8--x-x--8-x--8-x-x--8-x-x--8-x--8-|
|----------------------------------------|


  (Dm7)                       N.C.
  PM|    PM|    PM   PM|    PM
|-----------------------------------------|
|-----------------------------------------|
|-----10-----10---10-----10---------------|
|-----10-----10---10-----10---------------|
|-0-0----0-0----0----0-0----0-8h10p8-7h8--|
|-0-0----0-0----0----0-0----0-------------|
|
|-----------------------------------------|
|-----------------------------------------|
|-x-x-10-x-x-10-x-10-x-x-10-x-------------|
|-x-x-10-x-x-10-x-10-x-x-10-x-7h=8p7-5h7--|
|-----------------------------------------|
|-----------------------------------------|
  (Bbsus2)
  PM|    PM|    PM   PM|    PM|    PM
|---------------------------------------|
|---------------------------------------|
|-----10-----10---10-----10-----10---10-|
|-----10-----10---10-----10-----10---10-|
|-8-8----8-8----8----8-8----8-8----8----|
|-8-8----8-8----8----8-8----8-8----8----|
|
|---------------------------------------|
|---------------------------------------|
|-x-x-10-x-x-10-x-10-x-x-10-x-x-10-x-10-|
|-x-x--x-x-x--x-x--x-x-x--x-x-x--x-x--x-|
|-x-x--8-x-x--8-x--8-x-x--8-x-x--8-x--8-|
|---------------------------------------|


  (Dm7)
  PM|    PM|    PM   PM|    PM|    PM
|---------------------------------------|
|---------------------------------------|
|-----10-----10---10-----10-----10---10-|
|-----10-----10---10-----10-----10---10-|
|-0-0----0-0----0----0-0----0-0----0----|
|-0-0----0-0----0----0-0----0-0----0----|
|
|---------------------------------------|
|---------------------------------------|
|-x-x-10-x-x-10-x-10-x-x-10-x-x-10-x-10-|
|-x-x--x-x-x--x-x--x-x-x--x-x-x--x-x--x-|
|-x-x--8-x-x--8-x--8-x-x--8-x-x--8-x--8-|
|---------------------------------------|


  (Bbsus2)                           G5
  PM|    PM|    PM   PM|    PM|    PM
|--------------------------------------|----------------------------------||
|--------------------------------------|----------------------------------||
|-----10-----10---10-----10-----10-----|----------------------------------||
|-----10-----10---10-----10-----10---5-|-(5)-5-5-5-5-5-5-5-5-5-5-5-5-5-5--||
|-8-8----8-8----8----8-8----8-8----8-5-|-(5)-5-5-5-5-5-5-5-5-5-5-5-5-5-5--||
|-8-8----8-8----8----8-8----8-8----8-5-|-(5)-5-5-5-5-5-5-5-5-5-5-5-5-5-5--||
|
|--------------------------------------|----------------------------------||
|--------------------------------------|----------------------------------||
|-x-x-10-x-x-10-x-10-x-x-10-x-x-10-x---|----------------------------------||
|-x-x--x-x-x--x-x--x-x-x--x-x-x--x-x-5-|-(5)-5-5-5-5-5-5-5-5-5-5-5-5-5-5--||
|-x-x--8-x-x--8-x--8-x-x--8-x-x--8-x-5-|-(5)-5-5-5-5-5-5-5-5-5-5-5-5-5-5--||
|------------------------------------5-|-(5)-5-5-5-5-5-5-5-5-5-5-5-5-5-5--||


    D5                      G5
    PM--------------|
||----------------------------|---------------------------------------|
||o---------------------------|---------------------------------------|
||--------------------5s7---5-|-(5)-5-5-(5)-5s7---4-(4)-4-4-4-4-4-4-4-|
||--------------------x-----x-|-----x-x-----x-----x-----x-x-x-x-x-x-x-|
||o-0-0-0-0-0-0-0-0-0-3s5---3-|-(3)-3-3-(3)-3s5---2-(2)-2-2-2-2-2-2-2-|
||--0-0-0-0-0-0-0-0-0---------|---------------------------------------|
|
|   PM--------------------|
||----------------------------|---------------------------------------|
||o---------------------------|---------------------------------------|
||----------------------------|---------------------------------------|
||--------------------------5-|-(5)-5-5--5--5-5-5-5--5--5-5-5-5-5-5-5-|
||o-0-0-0-0-0-0-0-0-0-0-0-0-5-|-(5)-5-5--5--5-5-5-5--5--5-5-5-5-5-5-5-|
||--0-0-0-0-0-0-0-0-0-0-0-0-5-|-(5)-5-5--5--5-5-5-5--5--5-5-5-5-5-5-5-|


                                                                    D.S.
  D5                            G5
  
PM|     PM|     PM|
|---------------------------------|----------------------------------------||
|---------------------------------|---------------------------------------o||
|-------------------------5s7---5-|-(5)-5-5-(5)-5s7---4-(4)-4-4-4-4-4-4-4--||
|-------------------------x-----x-|-----x-x-----x-----x-----x-x-x-x-x-x-x--||
|-0-0-----0-0-----0-0-----3s5---3-|-(3)-3-3-(3)-3s5---2-(2)-2-2-2-2-2-2-2-o||
|-0-0-<2>-0-0-<2>-0-0-<2>---------|----------------------------------------||
|
| PM|     PM|     PM|
|---------------------------------|----------------------------------------||
|---------------------------------|---------------------------------------o||
|---------------------------------|----------------------------------------||
|-------------------------------5-|-(5)-5-5--5--5-5-5-5--5--5-5-5-5-5-5-5--||
|-0-0-----0-0-----0-0-----0-0-0-5-|-(5)-5-5--5--5-5-5-5--5--5-5-5-5-5-5-5-o||
|-0-0-<2>-0-0-<2>-0-0-<2>-0-0-0-5-|-(5)-5-5--5--5-5-5-5--5--5-5-5-5-5-5-5--||


   Breakdown
    D5                      C5/G       G
||-----------|------------|----------|-------||
||o----------|------------|----------|------o||
||-----------|------------|-5--------|-4-----||
||--0--------|-(0)--------|-5--------|-5-----||
||o-0--------|-(0)--------|-3--------|-2----o||
||--0--------|-(0)--------|----------|-------||
|
|                                      ~
||-----------|------------|----------|-------||
||o----------|------------|----------|------o||
||-----------|------------|----------|-------||
||--0--------|-(0)--------|----------|-------||
||o-0--------|-(0)--------|-3--------|------o||
||--0--------|-(0)--------|-5--------|-5-----||


  D5                                    C5/G        G
|-----------|-------------------------|-----------|------------------------|
|-----------|-------------------------|-----------|------------------------|
|-----------|-------------------------|-5---------|---4--------------------|
|-0---------|--(0)--------------------|-5---------|---5--------------------|
|-0---------|--(0)--------------------|-3---------|---2--------------------|
|-0---------|--(0)--------------------|-----------|------------------------|
|
|-----------|-------------------------|-----------|------------------------|
|-----------|-------------------------|-----------|------------------------|
|-7-------7-|-/10--9-(9)-5-(5)-7-(7)--|-5-------5-|-/10-9-(9)-7-(7)-9-(9)--|
|-x-------x-|---x--x-----x-----x------|-x-------x-|---x-x-----x-----x------|
|-5-------5-|--/8--7-(7)-3-(3)-5-(5)--|-3-------3-|--/8-7-(7)-5-(5)-7-(7)--|
|-----------|-------------------------|-----------|------------------------|


  D5
|-----------|-------------------------------|
|-----------|-------------------------------|
|-----------|-------------------------------|
|-0---------|--(0)--------------------------|
|-0---------|--(0)--------------------------|
|-0---------|--(0)--------------------------|
|
|-----------|-------------------------------|
|-----------|-------------------------------|
|-7-------7-|-/14--12-(12)-10-(10)-12-(12)--|
|-x-------x-|---x---x-------x-------x-------|
|-5-------5-|-/12--10-(10)--8--(8)-10-(10)--|
|-----------|-------------------------------|


  C5/G          G
                PM--------------------|
|-------------|--------------------------||
|-------------|--------------------------||
|--5----------|--------------------------||
|--5----------|-5--5---5---5---5--5-5-5--||
|--3----------|-2--2---2---2---2--2-2-2--||
|-------------|--------------------------||
|
|-------------|--------------------------||
|-------------|-----------13-(13)--------||
|-10-------10-|-9-10-(10)--x-------------||
|--x--------x-|-x--x------10-(10)--------||
|--8--------8-|-7--8--(8)----------------||
|-------------|--------------------------||


   Breakdown Chorus
    Bsus2
||------------------------------------------------------|
||o---------------------13----(13)----------------------|
||-----------10-(10)------------------10----------10----|
||--12--------------------------------------12----------|
||o-----------------------------------------------------|
||------------------------------------------------------|
|
||------------------------------------------------------|
||o-----------------------------------------------------|
||--10-10-10-10--10--10-10-10--10--10-10-10-10-10-10-10-|
||--10-10-10-10--10--10-10-10--10--10-10-10-10-10-10-10-|
||o--8--8--8--8---8---8--8--8---8---8--8--8--8--8--8--8-|
||---8--8--8--8---8---8--8--8---8---8--8--8--8--8--8--8-|


|------------------------------------------------------|
|---------------------13----(13)-----------------------|
|----------10-(10)------------------10----------10-----|
|-12--------------------------------------12-----------|
|------------------------------------------------------|
|------------------------------------------------------|
|
|------------------------------------------------------|
|------------------------------------------------------|
|-10-10-10-10--10--10-10-10--10--10-10-10-10-10-10-10--|
|-10-10-10-10--10--10-10-10--10--10-10-10-10-10-10-10--|
|--8--8--8--8---8---8--8--8---8---8--8--8--8--8--8--8--|
|--8--8--8--8---8---8--8--8---8---8--8--8--8--8--8--8--|


  Dm7
|-----------------------------------------------------|
|---------------------13----(13)----------------------|
|----------10-(10)------------------10----------10----|
|-12--------------------------------------12----------|
|-----------------------------------------------------|
|-----------------------------------------------------|
|
|-----------------------------------------------------|
|-----------------------------------------------------|
|-10-10-10-10--10--10-10-10--10--10-10-10-10-10-10-10-|
|-10-10-10-10--10--10-10-10--10--10-10-10-10-10-10-10-|
|--0--0--0--0---0---0--0--0---0---0--0--0--0--0--0--0-|
|--0--0--0--0---0---0--0--0---0---0--0--0--0--0--0--0-|


|------------------------------------------------------||
|---------------------13----(13)----------------------o||
|----------10-(10)------------------10----------10-----||
|-12--------------------------------------12-----------||
|-----------------------------------------------------o||
|------------------------------------------------------||
|
|------------------------------------------------------||
|-----------------------------------------------------o||
|-10-10-10-10--10--10-10-10--10--10-10-10-10-10-10-10--||
|-10-10-10-10--10--10-10-10--10--10-10-10-10-10-10-10--||
|--0--0--0--0---0---0--0--0---0---0--0--0--0--0--0--0-o||
|--0--0--0--0---0---0--0--0---0---0--0--0--0--0--0--0--||


    Bsus2
   3/4
||--------------------------------------|
||o-------------------------------------|
||--------------------------------------|
||---7h=8p=7-----7----------------------|
||o----------10----10--8h10--8--5--8h10-|
||--------------------------------------|
|
||--------------------------------------|
||o-------------------------------------|
||--10-10-10-10-10-10-10-10-10-10-10-10-|
||--10-10-10-10-10-10-10-10-10-10-10-10-|
||o--8--8--8--8--8--8--8--8--8--8--8--8-|
||---8--8--8--8--8--8--8--8--8--8--8--8-|


  Dm7
                                        4x
|---------------------------------------||
|--------------------------------------o||
|---------------------------------------||
|--7h=8p=7-----7------------------------||
|----------10----10--8h10--8--5--8h10--o||
|---------------------------------------||
|
|                                       4x
|---------------------------------------||
|--------------------------------------o||
|-10-10-10-10-10-10-10-10-10-10-10-10---||
|-10-10-10-10-10-10-10-10-10-10-10-10---||
|--0--0--0--0--0--0--0--0--0--0--0--0--o||
|--0--0--0--0--0--0--0--0--0--0--0--0---||


   Outro
    Bsus2
||--------------------------------------|
||o-------------------------------------|
||--------------------------------------|
||---7h=8p=7----------------------------|
||o-------------------------------------|
||--------------------------------------|
|
||--------------------------------------| 
||o-------------------------------------|
||--10-10-10-10-10-10-10-10-10-10-10-10-|
||--10-10-10-10-10-10-10-10-10-10-10-10-|
||o--8--8--8--8--8--8--8--8--8--8--8--8-|
||---8--8--8--8--8--8--8--8--8--8--8--8-|


  Dm7
                                       8x
|--------------------------------------||
|-------------------------------------o||
|--------------------------------------||
|--7h=8p=7-----------7h=8p=7-----------||
|----------------------------10--8h10-o||
|--------------------------------------||
|
|                                      8x
|--------------------------------------||
|-------------------------------------o||
|-10-10-10-10-10-10-10-10-10-10-10-10--||
|-10-10-10-10-10-10-10-10-10-10-10-10--||
|--0--0--0--0--0--0--0--0--0--0--0--0-o||
|--0--0--0--0--0--0--0--0--0--0--0--0--||



                    LIVING EACH DAY LIKE YOU'RE ALREADY DEAD

Gtr I (C G C F A D) - 'Untitled'
Gtr II (C G C F A D) - 'Untitled'

 Intro/Verse
  Fast Rock Q=184
  N.C.D5          DmD5  DmD5  DmD5    DsuD5  DsuD5  DsuD5
 4/4
  Gtr I
          PM|       PM|   PM|   PM--|    PM|     PM    PM
|-------------||------------------|-----------------------|
|-------------||o-----------------|-----------------------|
|-------------||--7-----7-----7---|----7------7------7----|
|-------------||------------------|-----------------------|
|---------0-0-||o-5-0-0-5-0-0-5-0-|-0--5-0-0--5--0---5-0--|
|---------0-0-||----0-0---0-0---0-|-0----0-0-----0-----0--|
|
| Gtr II
|     PM|           PM|   PM|   PM--|    PM|
|-------------||------------------|-----------------------|
|-------------||o-----------------|-----------------------|
|-------------||------------------|-----------------------|
|-------------||------------------|-----------------------|
|-----0-0-----||o-8-0-0-8-0-0-8-0-|-0-10-0-0-10s12--10----|
|-----0-0-----||--0-0-0-0-0-0-0-0-|-0--0-0-0--0-(0)--0----|


  D5
  PM------|  PM------|    PM------|  PM------|
|-----------------------|-----------------------|
|-----------------------|-----------------------|
|-----------------------|-----------------------|
|-----------------------|-----------------------|
|-0-0-0-0-0--0-0-0-0-0--|-0-0-0-0-0--0-0-0-0-0--|
|-0-0-0-0-0--0-0-0-0-0--|-0-0-0-0-0--0-0-0-0-0--|
|
| PM------|  PM------|    PM------|  PM------|
|-----------------------|-----------------------|
|-----------------------|-----------------------|
|-----------------------|-----------------------|
|-----------------------|-----------------------|
|-0-0-0-0-0--0-0-0-0-0--|-0-0-0-0-0--0-0-0-0-0--|
|-0-0-0-0-0--0-0-0-0-0--|-0-0-0-0-0--0-0-0-0-0--|


  DmD5  DmD5  DmD5    DsuD5  DsuD5  D5
    PM|   PM|   PM--|    PM|
|-----------------|----------------------|
|-----------------|----------------------|
|-7-----7-----7---|----7------7s=9---9---|
|-----------------|----------------------|
|-5-0-0-5-0-0-5-0-|-0--5-0-0--5s=7---7---|
|---0-0---0-0---0-|-0----0-0-------------|
|
|   PM|   PM|   PM--|    PM|
|-----------------|----------------------|
|-----------------|----------------------|
|-----------------|----------------------|
|-----------------|----------------------|
|-8-0-0-8-0-0-8-0-|-0-10-0-0-10s12--12---|
|-0-0-0-0-0-0-0-0-|-0--0-0-0--0-(0)--0---|


  Bbsus2
|---------------|----------------------||
|---------------|---------------------o||
|-10---10---10--|-(10)-10---10s=5--5---||
|---------------|----------------------||
|--8----8----8--|--(8)--8----8s=3--3--o||
|---------------|----------------------||
|
|---------------|----------------------||
|---------------|---------------------o||
|---------------|----------------------||
|-10---10---10--|-(10)-10---10-10-10---||
|--8----8----8--|--(8)--8----8--8--8--o||
|--8----8----8--|--(8)--8----8--8--8---||


  AsBbsus2           G5A5            F5
|------------------------|----------------|
|------------------------|----------------|
|-9s10-(10)-10-(10)--7s9-|-(9)-9---9s5-5--|
|------------------------|----------------|
|-7s=8--(8)--8--(8)--5s7-|-(7)-7---7s3-3--|
|------------------------|----------------|
|
|------------------------|----------------|
|------------------------|----------------|
|------------------------|----------------|
|-9s10-(10)-10-(10)--5s7-|-(7)-7---7s3-3--|
|-7s=8--(8)--8--(8)--5s7-|-(7)-7---7s3-3--|
|-7s=8--(8)--8--(8)--5s7-|-(7)-7---7s3-3--|


  D5
     PM------------------------|
|----------------|-----------------||
|----------------|-----------------||
|-7--------------|-----------------||
|----------------|---------------0-||
|-5--0-0-0-0-0-0-|-0-0-0-0-0-0-0-0-||
|----0-0-0-0-0-0-|-0-0-0-0-0-0-0-0-||
|
|    PM------------------------|
|----------------|-----------------||
|----------------|-----------------||
|----------------|-----------------||
|-0--------------|---------------0-||
|-0--0-0-0-0-0-0-|-0-0-0-0-0-0-0-0-||
|-0--0-0-0-0-0-0-|-0-0-0-0-0-0-0-0-||

   Chorus
    D5                                   AbG5D5F5
    Gtrs I, II
         PM----------------------------|
||-------------------------|---------------------|
||o------------------------|---------------------|
||-------------------------|---------------------|
||--(0)--------------------|-------------6s5-0-3-|
||o-(0)--0-0-0-0-0-0-0-0-0-|-0-0-0-0-0-0-6s5-0-3-|
||--(0)--0-0-0-0-0-0-0-0-0-|-0-0-0-0-0-0-6s5-0-3-|


                              N.C.  D5
                                       3x
|-------------------|------------------||
|-------------------|-----------------o||
|-------------------|---------5s7-7----||
|-(3)-3-3-3-3-3-3-3-|-3-3-3-3-------0--||
|-(3)-3-3-3-3-3-3-3-|-3-3-3-3-3s5-5-0-o||
|-(3)-3-3-3-3-3-3-3-|-3-3-3-3-------0--||


  D5                                   AbG5D5F5
       PM----------------------------|
|------------------------|---------------------|
|------------------------|---------------------|
|------------------------|---------------------|
|-(0)--------------------|-------------6s5-0-3-|
|-(0)--0-0-0-0-0-0-0-0-0-|-0-0-0-0-0-0-6s5-0-3-|
|-(0)--0-0-0-0-0-0-0-0-0-|-0-0-0-0-0-0-6s5-0-3-|


                              N.C.
|-------------------|-----------------||
|-------------------|-----------------||
|-------------------|---------5s7-7---||
|-(3)-3-3-3-3-3-3-3-|-3-3-3-3---------||
|-(3)-3-3-3-3-3-3-3-|-3-3-3-3-3s5-5---||
|-(3)-3-3-3-3-3-3-3-|-3-3-3-3---------||


   Bridge
    D5
    Gtr I
||-----------------------|-------------------------|
||o----------------------|-------------------------|
||-----------------------|-------------------------|
||---0----0--0-(0)-0--0--|--(0)--0--0---0--0--0--0-|
||o--0----0--0-(0)-0--0--|--(0)--0--0---0--0--0--0-|
||---0----0--0-(0)-0--0--|--(0)--0--0---0--0--0--0-|
|
|   Gtr II
||-----------------------|-------------------------|
||o----------------------|-------------------------|
||--14--(14)S9-------10--|-(10)-10-10--10-10-10-10-|
||-----------------------|-------------------------|
||o-12--(12)S7--------8--|--(8)--8--8---8--8--8--8-|
||-----------------------|-------------------------|


  Bb5
|----------------------|--------------------------|
|----------------------|--------------------------|
|--3----3--3-(3)-3--3--|--(3)--3--3---3--3--3--3--|
|--3----3--3-(3)-3--3--|--(3)--3--3---3--3--3--3--|
|--1----1--1-(1)-1--1--|--(1)--1--1---1--1--1--1--|
|----------------------|--------------------------|
|
|----------------------|--------------------------|
|----------------------|--------------------------|
|-14--(14)S9-------10--|-(10)-10-10--10-10-10-10--|
|----------------------|--------------------------|
|-12--(12)S7--------8--|--(8)--8--8---8--8--8--8--|
|----------------------|--------------------------|


  F5
|----------------------|-------------------------|
|----------------------|-------------------------|
|----------------------|-------------------------|
|--3----3--3-(3)-3--3--|--(3)--3--3---3--3--3--3-|
|--3----3--3-(3)-3--3--|--(3)--3--3---3--3--3--3-|
|--3----3--3-(3)-3--3--|--(3)--3--3---3--3--3--3-|
|
|----------------------|-------------------------|
|----------------------|-------------------------|
|-14--(14)S9-------10--|-(10)-10-10--10-10-10-10-|
|----------------------|-------------------------|
|-12--(12)S7--------8--|--(8)--8--8---8--8--8--8-|
|----------------------|-------------------------|


  C5
|-----------------------|--------------------------||
|-----------------------|-------------------------o||
|--5----5---5-(5)-5--5--|--(5)--5--5---5--5--5--5--||
|--5----5---5-(5)-5--5--|--(5)--5--5---5--5--5--5--||
|--3----3---3-(3)-3--3--|--(3)--3--3---3--3--3--3-o||
|-----------------------|--------------------------||
|
|-----------------------|--------------------------||
|-----------------------|-------------------------o||
|-14--(14)S15-------12--|-(12)-12-12--12-12-12-12--||
|-----------------------|--------------------------||
|-12--(12)S13-------10--|-(10)-10-10--10-10-10-10-o||
|-----------------------|--------------------------||

 Chorus
  D5                                 AbG5D5F5
  Gtrs I, II
     PM----------------------------|
|----------------------|---------------------|
|----------------------|---------------------|
|----------------------|---------------------|
|-0--------------------|-------------6s5-0-3-|
|-0--0-0-0-0-0-0-0-0-0-|-0-0-0-0-0-0-6s5-0-3-|
|-0--0-0-0-0-0-0-0-0-0-|-0-0-0-0-0-0-6s5-0-3-|

|-------------------|-----------------|
|-------------------|-----------------|
|-------------------|---------5s7-----|
|-(3)-3-3-3-3-3-3-3-|-3-3-3-3------0--|
|-(3)-3-3-3-3-3-3-3-|-3-3-3-3-3s5--0--|
|-(3)-3-3-3-3-3-3-3-|-3-3-3-3------0--|


  D5                                   AbG5D5F5
       PM----------------------------|
|------------------------|---------------------|
|------------------------|---------------------|
|------------------------|---------------------|
|-(0)--------------------|-------------6s5-0-3-|
|-(0)--0-0-0-0-0-0-0-0-0-|-0-0-0-0-0-0-6s5-0-3-|
|-(0)--0-0-0-0-0-0-0-0-0-|-0-0-0-0-0-0-6s5-0-3-|


                              N.C. D5
|-------------------|-----------------|
|-------------------|-----------------|
|-------------------|---------5s7-----|
|-(3)-3-3-3-3-3-3-3-|-3-3-3-3------0--|
|-(3)-3-3-3-3-3-3-3-|-3-3-3-3-3s5--0--|
|-(3)-3-3-3-3-3-3-3-|-3-3-3-3------0--|


  D5                                   AbG5D5F5
       PM----------------------------|
|------------------------|---------------------|
|------------------------|---------------------|
|------------------------|---------------------|
|-(0)--------------------|-------------6s5-0-3-|
|-(0)--0-0-0-0-0-0-0-0-0-|-0-0-0-0-0-0-6s5-0-3-|
|-(0)--0-0-0-0-0-0-0-0-0-|-0-0-0-0-0-0-6s5-0-3-|


                                       N.C. D5
       PM----------------------------|
|------------------------|----------------------|
|------------------------|----------------------|
|------------------------|-------------5s7------|
|-(3)--------------------|------------------0---|
|-(3)--3-3-3-3-3-3-3-3-3-|-3-3-3-3-3-3-3s5--0---|
|-(3)--3-3-3-3-3-3-3-3-3-|-3-3-3-3-3-3------0---|


  D5                                   AbG5D5F5
       PM----------------------------|
|------------------------|---------------------|
|------------------------|---------------------|
|------------------------|---------------------|
|-(0)--------------------|-------------6s5-0-3-|
|-(0)--0-0-0-0-0-0-0-0-0-|-0-0-0-0-0-0-6s5-0-3-|
|-(0)--0-0-0-0-0-0-0-0-0-|-0-0-0-0-0-0-6s5-0-3-|
                                       N.C.
       PM----------------------------|
|------------------------|----------------------||
|------------------------|----------------------||
|------------------------|-------------5s7-7----||
|-(3)--------------------|----------------------||
|-(3)--3-3-3-3-3-3-3-3-3-|-3-3-3-3-3-3-3s5-5----||
|-(3)--3-3-3-3-3-3-3-3-3-|-3-3-3-3-3-3----------||


 Interlude
  D5
|----------|------------|-------------|--------------|
|----------|------------|-------------|--------------|
|----------|------------|-------------|--------------|
|-0--------|-(0)--------|-0--0--0--0--|-0--0--0--0---|
|-0--------|-(0)--------|-0--0--0--0--|-0--0--0--0---|
|-0--------|-(0)--------|-0--0--0--0--|-0--0--0--0---|


  N.C.
  Gtr I
|-----------------|-----------------|-----------------|------------------|
|-----------------|-----------------|-----------------|------------------|
|-----------------|-----------------|-----------------|------------------|
|-5-4-3-2---------|-5-4-3-2---------|-5-4-3-2---------|-5-4-3-2----------|
|---------5-4-3-2-|---------5-4-3-2-|---------5-4-3-2-|---------5-4-3-2--|
|-----------------|-----------------|-----------------|------------------|


  D5
  Gtrs I, II
|-------------|-------------| 
|-------------|-------------|
|-------------|-------------|
|-0--0--0--0--|-0--0--0--0--|
|-0--0--0--0--|-0--0--0--0--|
|-0--0--0--0--|-0--0--0--0--|


  N.C.
  Gtr I
|-----------------|-----------------|-----------------|------------------|
|-----------------|-----------------|-----------------|------------------|
|-----------------|-----------------|-----------------|------------------|
|-5-4-3-2---------|-5-4-3-2---------|-5-4-3-2---------|-5-4-3-2----------|
|---------5-4-3-2-|---------5-4-3-2-|---------5-4-3-2-|---------5-4-3-2--|
|-----------------|-----------------|-----------------|------------------|
|
| Gtr II
|-----------------|-----------------|-----------------|------------------|
|-----------------|-----------------|-----------------|------------------|
|-7-6-5-4---------|-7-6-5-4---------|-7-6-5-4---------|-7-6-5-4----------|
|---------7-6-5-4-|---------7-6-5-4-|---------7-6-5-4-|---------7-6-5-4--|
|-----------------|-----------------|-----------------|------------------|
|-----------------|-----------------|-----------------|------------------|

    D5
    Gtrs I, II
||--------------|-------------|
||o-------------|-------------|
||--------------|-------------|
||--0--0--0--0--|-0--0--0--0--|
||o-0--0--0--0--|-0--0--0--0--|
||--0--0--0--0--|-0--0--0--0--|


  N.C.
  Gtr I
|-----------------|-----------------|-----------------|-------------------||
|-----------------|-----------------|-----------------|------------------o||
|-----------------|-----------------|-----------------|-------------------||
|-5-4-3-2---------|---------2-3-4-5-|-5-4-3-2---------|---------2-3-4-5---||
|---------5-4-3-2-|-2-3-4-5---------|---------5-4-3-2-|-2-3-4-5----------o||
|-----------------|-----------------|-----------------|-------------------||
|
| Gtr II
|-----------------|-----------------|-----------------|-------------------||
|-----------------|-----------------|-----------------|------------------o||
|-7-6-5-4---------|-7-6-5-4---------|---------4-5-6-7-|---------4-5-6-7---||
|---------7-6-5-4-|---------7-6-5-4-|-4-5-6-7---------|-4-5-6-7-----------||
|-----------------|-----------------|-----------------|------------------o||
|-----------------|-----------------|-----------------|-------------------||


 Outro
  D5
  Gtrs I, II
|----------|------------|----------|--------|
|----------|------------|----------|--------|
|----------|------------|----------|--------|
|-0--------|-(0)--------|-0--------|-(0)----|
|-0--------|-(0)--------|-0--------|-(0)----|
|-0--------|-(0)--------|-0--------|-(0)----|


  D5
  Gtr I
|-10-9-------------------|-10--9-------------------|
|------10-12-12-10-------|-------10-12-12-10-------|
|------------------12-11-|-------------------12-11-|
|------------------------|-------------------------|
|------------------------|-------------------------|
|------------------------|-------------------------|
|
| Gtr II
|------------------------|-------------------------|
|------------------------|-------------------------|
|------------------------|-------------------------|
|--0---------------------|-(0)---------------------|
|--0---------------------|-(0)---------------------|
|--0---------------------|-(0)---------------------|


|-10-9-------------------|-10--9--------------------|
|------10-12-12-10-------|-------10-12-12-10--------|
|------------------12-11-|-------------------12-11--|
|------------------------|--------------------------|
|------------------------|--------------------------|
|------------------------|--------------------------|
|

|------------------------|--------------------------|
|------------------------|--------------------------|
|------------------------|--------------------------|
|--0---------------------|-(0)----------------------|
|--0---------------------|-(0)----------------------|
|--0---------------------|-(0)----------------------|


  D5
|-10-9-------------------|-10-9-------------------|
|------10-12-12-10-------|------10-12-12-10-------|
|------------------12-11-|------------------12-11-|
|------------------------|------------------------|
|------------------------|------------------------|
|------------------------|------------------------|
|
|------------------------|------------------------|
|------------------------|------------------------|
|------------------------|------------------------|
|--0-0--0--0--0--0--0--0-|--0-0--0--0--0--0--0--0-|
|--0-0--0--0--0--0--0--0-|--0-0--0--0--0--0--0--0-|
|--0-0--0--0--0--0--0--0-|--0-0--0--0--0--0--0--0-|


  G5
|-10-9-------------------|-10-9--------------------|
|------10-12-12-10-------|------10-12-12-10--------|
|------------------12-11-|------------------12-11--|
|------------------------|-------------------------|
|------------------------|-------------------------|
|------------------------|-------------------------|
|
|------------------------|-------------------------|
|------------------------|-------------------------|
|------------------------|-------------------------|
|--5-5--5--5--5--5--5--5-|--5-5--5--5--5--5--5--5--|
|--5-5--5--5--5--5--5--5-|--5-5--5--5--5--5--5--5--|
|--5-5--5--5--5--5--5--5-|--5-5--5--5--5--5--5--5--|


  E5
|-10-9-------------------|-10-9-------------------|
|------10-12-12-10-------|------10-12-12-10-------|
|------------------12-11-|------------------12-11-|
|------------------------|------------------------|
|------------------------|------------------------|
|------------------------|------------------------|
|
|------------------------|------------------------|
|------------------------|------------------------|
|------------------------|------------------------|
|--2-2--2--2--2--2--2--2-|--2-2--2--2--2--2--2--2-|
|--2-2--2--2--2--2--2--2-|--2-2--2--2--2--2--2--2-|
|--2-2--2--2--2--2--2--2-|--2-2--2--2--2--2--2--2-|


  G5
|-10-9-------------------|-10-9--------------------|
|------10-12-12-10-------|------10-12-12-10--------|
|------------------12-11-|------------------12-11--|
|------------------------|-------------------------|
|------------------------|-------------------------|
|------------------------|-------------------------|
|
|------------------------|-------------------------|
|------------------------|-------------------------|
|------------------------|-------------------------|
|--5-5--5--5--5--5--5--5-|--5-5--5--5--5--5--5--5--|
|--5-5--5--5--5--5--5--5-|--5-5--5--5--5--5--5--5--|
|--5-5--5--5--5--5--5--5-|--5-5--5--5--5--5--5--5--|


  D5
|-10-9-------------------|-10-9-------------------|
|------10-12-12-10-------|------10-12-12-10-------|
|------------------12-11-|------------------12-11-|
|------------------------|------------------------|
|------------------------|------------------------|
|------------------------|------------------------|
|
|  PM-----|                 PM-----|
|------------------------|------------------------|
|------------------------|------------------------|
|------------------------|------------------------|
|-------------0--0--0--0-|-------------0--0--0--0-|
|--0-0--0--0--0--0--0--0-|--0-0--0--0--0--0--0--0-|
|--0-0--0--0--0--0--0--0-|--0-0--0--0--0--0--0--0-|


  G5
|-10-9-------------------|-10-9--------------------|
|------10-12-12-10-------|------10-12-12-10--------|
|------------------12-11-|------------------12-11--|
|------------------------|-------------------------|
|------------------------|-------------------------|
|------------------------|-------------------------|
|
|  PM-----|                 PM-----|
|------------------------|-------------------------|
|------------------------|-------------------------|
|------------------------|-------------------------|
|-------------5--5--5--5-|-------------5--5--5--5--|
|--5-5--5--5--5--5--5--5-|--5-5--5--5--5--5--5--5--|
|--5-5--5--5--5--5--5--5-|--5-5--5--5--5--5--5--5--|


  E5
|-10-9-------------------|-10-9-------------------|
|------10-12-12-10-------|------10-12-12-10-------|
|------------------12-11-|------------------12-11-|
|------------------------|------------------------|
|------------------------|------------------------|
|------------------------|------------------------|
|
|  PM-----|                 PM-----|
|------------------------|------------------------|
|------------------------|------------------------|
|------------------------|------------------------|
|-------------2--2--2--2-|-------------2--2--2--2-|
|--2-2--2--2--2--2--2--2-|--2-2--2--2--2--2--2--2-|
|--2-2--2--2--2--2--2--2-|--2-2--2--2--2--2--2--2-|


  G5
|-10-9-------------------|-10-9--------------------|
|------10-12-12-10-------|------10-12-12-10--------|
|------------------12-11-|------------------12-11--|
|------------------------|-------------------------|
|------------------------|-------------------------|
|------------------------|-------------------------|
|
|  PM-----|                 PM-----|
|------------------------|-------------------------|
|------------------------|-------------------------|
|------------------------|-------------------------|
|-------------5--5--5--5-|-------------5--5--5--5--|
|--5-5--5--5--5--5--5--5-|--5-5--5--5--5--5--5--5--|
|--5-5--5--5--5--5--5--5-|--5-5--5--5--5--5--5--5--|


  N.C.
|-10-9-------------------|-10-9-------------------|
|------10-12-12-10-------|------10-12-12-10-------|
|------------------12-11-|------------------12-11-|
|------------------------|------------------------|
|------------------------|------------------------|
|------------------------|------------------------|
|
|------------------------|------------------------|
|-10-8--7--8--8--7-------|-10-8--7--8--8--7-------|
|-------------------9--7-|-------------------9--7-|
|------------------------|------------------------|
|------------------------|------------------------|
|------------------------|------------------------|


|-10-9-------------------|-10-9--------------------|
|------10-12-12-10-------|------10-12-12-10--------|
|------------------12-11-|------------------12-11--|
|------------------------|-------------------------|
|------------------------|-------------------------|
|------------------------|-------------------------|
|
|------------------------|-------------------------|
|-10-8--7--8--8--7-------|-10-8--7--8--8--7--------|
|-------------------9--7-|-------------------9--7--|
|------------------------|-------------------------|
|------------------------|-------------------------|
|------------------------|-------------------------|


  N.C.
|-10---------------------|-10---------------------|
|------10----12----------|------10----12----------|
|------------------12----|------------------12----|
|------------------------|------------------------|
|------------------------|------------------------|
|------------------------|------------------------|
|
|----9-------------------|----9-------------------|
|---------12----10-------|---------12----10-------|
|---------------------11-|---------------------11-|
|------------------------|------------------------|
|------------------------|------------------------|
|------------------------|------------------------|


|-10---------------------|-10----------------------|
|------10----12----------|------10----12-----------|
|------------------12----|------------------12-----|
|------------------------|-------------------------|
|------------------------|-------------------------|
|------------------------|-------------------------|
|
|----9-------------------|----9--------------------|
|---------12----10-------|---------12----10--------|
|---------------------11-|---------------------11--|
|------------------------|-------------------------|
|------------------------|-------------------------|
|------------------------|-------------------------|


  D5
  Gtrs I, II
  PM|  PM--|
|--------------|-----*|
|--------------|-----*|
|--------------|-----*|
|--------------|-----*|
|-0-0--0-0-0---|-----*|
|-0-0--0-0-0---|-----*|



                               DEANNE THE ARSONIST

Gtr I (C G C F A D) - 'Untitled'
Gtr II (C G C F A D) - 'Untitled'

 Intro
  Fast Rock Q=156
  N.C.
 4/4
  

Gtr I
|---------||----------------------------------------|
|---------||o---------------------------------------|
|---------||--0-0-0-0-12-12-0-0-12-12-0-0-12-12-0-0-|
|---------||----------------------------------------|
|---------||o---------------------------------------|
|---------||----------------------------------------|


|-----------------------------------------||
|----------------------------------------o||
|-0-0-0-0-12-12-0-0-12-12-0-0-12-12-0-0---||
|-----------------------------------------||
|----------------------------------------o||
|-----------------------------------------||


    G5
    Gtr I
||----------------------------------------|
||o---------------------------------------|
||--0-0-0-0-12-12-0-0-12-12-0-0-12-12-0-0-|
||----------------------------------------|
||o---------------------------------------|
||----------------------------------------|
|
|   Gtr II
||----------------------------------------|
||o---------------------------------------|
||----------------------------------------|
||--5-------------------------------------|
||o-5-------------------------------------|
||--5-------------------------------------|


  Eb5
|----------------------------------------|
|----------------------------------------|
|-0-0-0-0-12-12-0-0-12-12-0-0-12-12-0-0--|
|----------------------------------------|
|----------------------------------------|
|----------------------------------------|
|
|----------------------------------------|
|----------------------------------------|
|----------------------------------------|
|-1--------------------------------------|
|-1--------------------------------------|
|-1--------------------------------------|


  Bb5
|---------------------------------------|
|---------------------------------------|
|-0-0-0-0-12-12-0-0-12-12-0-0-12-12-0-0-|
|---------------------------------------|
|---------------------------------------|
|---------------------------------------|
|
|---------------------------------------|
|---------------------------------------|
|-3-------------------------------------|
|-3-------------------------------------|
|-1-------------------------------------|
|---------------------------------------|


  F5
|----------------------------------------||
|---------------------------------------o||
|-0-0-0-0-12-12-0-0-12-12-0-0-12-12-0-0--||
|----------------------------------------||
|---------------------------------------o||
|----------------------------------------||
|
|----------------------------------------||
|---------------------------------------o||
|----------------------------------------||
|-3--------------------------------------||
|-3-------------------------------------o||
|-3--------------------------------------||


   Guitar Solo
    $
    G5             Eb5
||-----/3--3-----|---------------|
||o-----------6--|-4-------3---4-|
||---------------|-------5-------|
||---------------|---------------|
||o--------------|---------------|
||---------------|---------------|
|
||---------------|---------------|
||o--------------|---------------|
||---------------|---------------|
||--5---5--5--5--|-1--1--1---1---|
||o-5---5--5--5--|-1--1--1---1---|
||--5---5--5--5--|-1--1--1---1---|


  Bb5                F5
|------------------|-------------------|
|-3----------------|-------------------|
|---0-(0)--0-2---3-|-/5--3-2-(2)-----0-|
|------------------|-------------3-----|
|------------------|-------------------|
|------------------|-------------------|
|
|------------------|-------------------|
|------------------|-------------------|
|-3----3---3---3---|-------------------|
|-3----3---3---3---|--3--3----3----3---|
|-1----1---1---1---|--3--3----3----3---|
|------------------|--3--3----3----3---|


  G5             Eb5
|----/3--3-----|-----------3---|
|-----------6--|-4-----/6----6-|
|--------------|---------------|
|--------------|---------------|
|--------------|---------------|
|--------------|---------------|
|
|--------------|---------------|
|--------------|---------------|
|--------------|---------------|
|-5---5--5--5--|-1--1---1--1---|
|-5---5--5--5--|-1--1---1--1---|
|-5---5--5--5--|-1--1---1--1---|


                         To Coda
  Bb5             F5
   ~~~
|---------------|-/6--5-3-------3--||
|-(6)-----------|-----------6-----o||
|---------------|------------------||
|---------------|------------------||
|---------------|-----------------o||
|---------------|------------------||
|
|---------------|------------------||
|---------------|-----------------o||
|--3---3--3--3--|------------------||
|--3---3--3--3--|--3--3---3---3----||
|--1---1--1--1--|--3--3---3---3---o||
|---------------|--3--3---3---3----||


   1st Verse
    G5                              Eb5
    Gtrs I, II
||----------------|---------------|---------------|----------------|
||o---------------|---------------|---------------|----------------|
||----------------|---------------|---------------|----------------|
||--5-5--5-5-5--5-|-5-5--5-5-5--5-|-1-1--1-1-1--1-|-1-1--1-1-1--1--|
||o-5-5--5-5-5--5-|-5-5--5-5-5--5-|-1-1--1-1-1--1-|-1-1--1-1-1--1--|
||--5-5--5-5-5--5-|-5-5--5-5-5--5-|-1-1--1-1-1--1-|-1-1--1-1-1--1--|


                                                      D.S. al Coda
  F/A                             D5                Eb5
  Gtr I
|---------------|---------------|-----------------|------------------||
|---------------|---------------|-----------------|-----------------o||
|---------------|---------------|-----------------|------------------||
|-7-7--7-7-7--7-|-7-7--7-7-7--7-|-0-0-0-0-0-0-0-0-|-1-1-1-1-1-1-1-1--||
|-8-8--8-8-8--8-|-8-8--8-8-8--8-|-0-0-0-0-0-0-0-0-|-1-1-1-1-1-1-1-1-o||
|-7-7--7-7-7--7-|-7-7--7-7-7--7-|-0-0-0-0-0-0-0-0-|-1-1-1-1-1-1-1-1--||
|
| Gtr II
|---------------|---------------|-----------------|------------------||
|---------------|---------------|-----------------|-----------------o||
|---------------|---------------|-7-7-7-7-7-7-7-7-|-8-8-8-8-8-8-8-8--||
|-7-7--7-7-7--7-|-7-7--7-7-7--7-|-x-x-x-x-x-x-x-x-|-x-x-x-x-x-x-x-x--||
|-8-8--8-8-8--8-|-8-8--8-8-8--8-|-5-5-5-5-5-5-5-5-|-6-6-6-6-6-6-6-6-o||
|-7-7--7-7-7--7-|-7-7--7-7-7--7-|-----------------|------------------||


   2nd Verse
    &
    G5                              Eb5
    Gtrs I, II
||----------------|---------------|---------------|----------------|
||o---------------|---------------|---------------|----------------|
||----------------|---------------|---------------|----------------|
||--5-5--5-5-5--5-|-5-5--5-5-5--5-|-1-1--1-1-1--1-|-1-1--1-1-1--1--|
||o-5-5--5-5-5--5-|-5-5--5-5-5--5-|-1-1--1-1-1--1-|-1-1--1-1-1--1--|
||--5-5--5-5-5--5-|-5-5--5-5-5--5-|-1-1--1-1-1--1-|-1-1--1-1-1--1--|


                                 1.
  F/A                             D5                Eb5
  Gtr I
|---------------|---------------|-----------------|------------------||
|---------------|---------------|-----------------|-----------------o||
|---------------|---------------|-----------------|------------------||
|-7-7--7-7-7--7-|-7-7--7-7-7--7-|-0-0-0-0-0-0-0-0-|-1-1-1-1-1-1-1-1--||
|-8-8--8-8-8--8-|-8-8--8-8-8--8-|-0-0-0-0-0-0-0-0-|-1-1-1-1-1-1-1-1-o||
|-7-7--7-7-7--7-|-7-7--7-7-7--7-|-0-0-0-0-0-0-0-0-|-1-1-1-1-1-1-1-1--||
|
| Gtr II
|---------------|---------------|-----------------|------------------||
|---------------|---------------|-----------------|-----------------o||
|---------------|---------------|-7-7-7-7-7-7-7-7-|-8-8-8-8-8-8-8-8--||
|-7-7--7-7-7--7-|-7-7--7-7-7--7-|-x-x-x-x-x-x-x-x-|-x-x-x-x-x-x-x-x--||
|-8-8--8-8-8--8-|-8-8--8-8-8--8-|-5-5-5-5-5-5-5-5-|-6-6-6-6-6-6-6-6-o||
|-7-7--7-7-7--7-|-7-7--7-7-7--7-|-----------------|------------------||


  2.
  D5                Eb5
  Gtrs I, II
    PM--|   PM--|     PM--|   PM--|
|-----------------|-----------------||
|-----------------|-----------------||
|-----------------|-----------------||
|-0-------0-------|-1-------1-------||
|-0-0-0-0-0-0-0-0-|-1-1-1-1-1-1-1-1-||
|-0-0-0-0-0-0-0-0-|-1-1-1-1-1-1-1-1-||


 Interlude
  $$
  D5
  Gtr I
  PM|
|---------------|--------------|
|---------------|--------------|
|---------------|--------------|
|--------7--/8--|--------------|
|-0-0-5---------|-5------(5)\--|
|-0-0-----------|--------------|
|
| Gtr II
| PM|
|---------------|--------------|
|---------------|--------------|
|--------5--/7--|--------------|
|-----3---------|-3------(3)\--|
|-0-0-----------|--------------|
|-0-0-----------|--------------|


    D5
||--------------|---------------|-------------|--------------|
||o-------------|---------------|-------------|--------------|
||--------------|---------------|-------------|--------------|
||-------7------|-/10----8---7--|------7------|-8----7-------|
||o-5--------5--|---------------|-5--------5--|----------8---|
||--------------|---------------|-------------|--------------|
|
|   PM|             PM|           PM|           PM|
||--------------|---------------|-------------|--------------|
||o-------------|---------------|-------------|--------------|
||--------------|---------------|-------------|--------------|
||--------------|---------------|-------------|--------------|
||o-0-0------0--|---0-0---------|-0-0------0--|-0-0----------|
||--0-0------0--|---0-0---------|-0-0------0--|-0-0----------|


               To Dbl. Coda
  D5
|-------------|---------------|-------------|---------------------||
|-------------|---------------|-------------|--------------------o||
|-------------|---------------|-------------|---------------------||
|------7------|-/10----8---7--|------7------|-8----7--------------||
|-5--------5--|---------------|-5--------5--|---------------8----o||
|-------------|---------------|-------------|---------------------||
|
| PM|             PM|           PM|           PM|  PM----|
|-------------|---------------|-------------|---------------------||
|-------------|---------------|-------------|--------------------o||
|-------------|---------------|-------------|---------------------||
|-------------|---------------|-------------|---------------------||
|-0-0------0--|---0-0---------|-0-0------0--|-0-0--0-0-0-0-------o||
|-0-0------0--|---0-0---------|-0-0------0--|-0-0--0-0-0-0-[1]----||



 
   Bridge
    Ab5                                 Eb5
    Gtrs I, II
||------------------|-----------------|-----------------|------------------|
||o-----------------|-----------------|-----------------|------------------|
||------------------|-----------------|-----------------|------------------|
||--6-6-6-6-6-6-6-6-|-6-6-6-6-6-6-6-6-|-1-1-1-1-1-1-1-1-|-1-1-1-1-1-1-1-1--|
||o-6-6-6-6-6-6-6-6-|-6-6-6-6-6-6-6-6-|-1-1-1-1-1-1-1-1-|-1-1-1-1-1-1-1-1--|
||--6-6-6-6-6-6-6-6-|-6-6-6-6-6-6-6-6-|-1-1-1-1-1-1-1-1-|-1-1-1-1-1-1-1-1--|


  Gb5                                 D5
|-----------------|-----------------|----------|---------||
|-----------------|-----------------|----------|--------o||
|-----------------|-----------------|----------|---------||
|-4-4-4-4-4-4-4-4-|-4-4-4-4-4-4-4-4-|-0--------|-(0)-----||
|-4-4-4-4-4-4-4-4-|-4-4-4-4-4-4-4-4-|-0--------|-(0)----o||
|-4-4-4-4-4-4-4-4-|-4-4-4-4-4-4-4-4-|-0--------|-(0)-----||


|------------|--------||
|------------|--------||
|------------|--------||
|-(0)--------|-(0)----||
|-(0)--------|-(0)----||
|-(0)--------|-(0)----||


 Guitar Solo
  D5                                N.C.
  T       T       T       T         T       T       T       T
|---------------------------------|---------------------------------|
|---------------------------------|---------------------------------|
|-7-3h5p3-7-3h5p3-7-3h5p3-7-3h5p3-|-8-3h5p3-8-3h5p3-8-3h5p3-8-3h5p3-|
|---------------------------------|---------------------------------|
|---------------------------------|---------------------------------|
|---------------------------------|---------------------------------|
|
| Gtr II
|---------------------------------|---------------------------------|
|---------------------------------|---------------------------------|
|---------------------------------|---------------------------------|
|-0-------------------------------|---------------------------------|
|-0-------------------------------|---------------------------------|
|-0-------------------------------|---------------------------------|

   T        T        T        T          T        T        T        T
|-------------------------------------|-------------------------------------|
|-------------------------------------|-------------------------------------|
|-10-3h5p3-10-3h5p3-10-3h5p3-10-3h5p3-|-10-3h5p3-10-3h5p3-10-3h5p3-10-3h5p3-|
|-------------------------------------|-------------------------------------|
|-------------------------------------|-------------------------------------|
|-------------------------------------|-------------------------------------|
|
|-------------------------------------|-------------------------------------|
|-------------------------------------|-------------------------------------|
|-------------------------------------|-------------------------------------|
|-------------------------------------|-------------------------------------|
|-------------------------------------|-------------------------------------|
|-------------------------------------|-------------------------------------|


    Bb5                               C5
    T       T       T       T          T       T       T       T
||----------------------------------|-----------------------------------|
||o---------------------------------|-----------------------------------|
||--7-3h5p3-7-3h5p3-7-3h5p3-7-3h5p3-|--8-3h5p3-8-3h5p3-8-3h5p3-8-3h5p3--|
||----------------------------------|-----------------------------------|
||o---------------------------------|-----------------------------------|
||----------------------------------|-----------------------------------|
|
||----------------------------------|-----------------------------------|
||o---------------------------------|-----------------------------------|
||----------------------------------|-----------------------------------|
||--8-------------------------------|-10--------------------------------|
||o-8-------------------------------|-10--------------------------------|
||--8-------------------------------|-10--------------------------------|


  Eb5
   T        T        T        T
|-------------------------------------|
|-------------------------------------|
|-10-3h5p3-10-3h5p3-10-3h5p3-10-3h5p3-|
|-------------------------------------|
|-------------------------------------|
|-------------------------------------|
|
|-------------------------------------|
|-------------------------------------|
|-------------------------------------|
|-13----------------------------------|
|-13----------------------------------|
|-13----------------------------------|
    T         T        T        T
|----------------------------------------||
|---------------------------------------o||
|--10--3h5p3-10-3h5p3-10-3h5p3-10-3h5p3--||
|----------------------------------------||
|---------------------------------------o||
|----------------------------------------||
|
|----------------------------------------||
|---------------------------------------o||
|----------------------------------------||
|-(13)-----------------------------------||
|-(13)----------------------------------o||
|-(13)-----------------------------------||

T.C.
   T        T        T        T          T        T        T        T
|-------------------------------------|-------------------------------------|
|-------------------------------------|-------------------------------------|
|--7-3h5p3--7-3h5p3--7-3h5p3--7-3h5p3-|--8-3h5p3--8-3h5p3--8-3h5p3--8-3h5p3-|
|-------------------------------------|-------------------------------------|
|-------------------------------------|-------------------------------------|
|-------------------------------------|-------------------------------------|
|
|  T        T        T        T          T        T        T        T
|-------------------------------------|-------------------------------------|
|-------------------------------------|-------------------------------------|
|-10-7h8p7-10-7h8p7-10-7h8p7-10-7h8p7-|-11-7h8p7-11-7h8p7-11-7h8p7-11-7h8p7-|
|-------------------------------------|-------------------------------------|
|-------------------------------------|-------------------------------------|
|-------------------------------------|-------------------------------------|


                                                       D.S.S. al Dbl. Coda
   T        T        T        T          T        T        T        T
|-------------------------------------|-------------------------------------||
|-------------------------------------|-------------------------------------||
|-10-3h5p3-10-3h5p3-10-3h5p3-10-3h5p3-|-10-3h5p3-10-3h5p3-10-3h5p3-10-3h5p3-||
|-------------------------------------|-------------------------------------||
|-------------------------------------|-------------------------------------||
|-------------------------------------|-------------------------------------||
|
|  T        T        T        T          T        T        T        T
|-------------------------------------|-------------------------------------||
|-------------------------------------|-------------------------------------||
|-15-7h8p7-15-7h8p7-15-7h8p7-15-7h8p7-|-15-7h8p7-15-7h8p7-15-7h8p7-15-7h8p7-||
|-------------------------------------|-------------------------------------||
|-------------------------------------|-------------------------------------||
|-------------------------------------|-------------------------------------||


 Outro
  &&
  D5
  Gtrs I, II
  PM|    PM--|
|--------------|----------*|
|--------------|----------*|
|--------------|----------*|
|--------------|----------*|
|-0-0----0-0-0-|-0--------*|
|-0-0----0-0-0-|-0--------*|


                         SOMEONE'S STANDING ON MY CHEST


Gtr I (C G C F A D) - 'Untitled'
Gtr II (C G C F A D) - 'Untitled'
Gtr III (C G C F A D) - 'Untitled'
Gtr IV (C G C F A D) - 'Untitled'

 Intro
  Fast Rock Q=201
  Dmadd9add11           A5G5F5D5
 4/4
  Gtr I

|----------0---|-(0)------------||
|-------6------|----------------||
|-----0--------|----------------||
|---7----------|----------------||
|-5------------|----------------||
|--------------|----------------||
|
| Gtrs II, III
|                       PM--|
|--------------|----------------||
|--------------|----------------||
|--------------|----------------||
|--------------|--------------0-||
|--------------|--------7-5-3-0-||
|--------------|--------7-5-3-0-||


 Verse
  $
  D5                                      E5F5 E5C5
  Gtr II
      PM|   PM|   PM|   PM|     PM|   PM|
|---------------------------|----------------------|
|---------------------------|----------------------|
|---------------------------|-7-----------9-10-9-5-|
|-(0)-----0-----0-----0-----|-x-----0-----x--x-x-5-|
|-(0)-0-0-0-0-0-0-0-0-0-0-0-|-5-0-0-0-0-0-7--8-7-3-|
|-(0)-0-0-0-0-0-0-0-0-0-0-0-|---0-0-0-0-0----------|
|
| Gtr III
|     PM|   PM|   PM|   PM|     PM|   PM-------|
|---------------------------|----------------------|
|---------------------------|----------------------|
|---------------------------|-7------------------5-|
|-(0)-----0-----0-----0-----|-x-----0------------5-|
|-(0)-0-0-0-0-0-0-0-0-0-0-0-|-5-0-0-0-0-0-2--3-2-3-|
|-(0)-0-0-0-0-0-0-0-0-0-0-0-|---0-0-0-0-0-2--3-2---|


                            Bb5        A5G5F5D5
       PM----|    PM----|      PM----------|
|-------------------------|--------------------|
|-------------------------|--------------------|
|-(5)----------5----------|-3------------------|
|-(5)--5-5-5-5-5--5-5-5-5-|-3--3-3-3-3-------0-|
|-(3)--3-3-3-3-3--3-3-3-3-|-1--1-1-1-1-7-5-3-0-|
|-------------------------|------------7-5-3-0-|
|
|      PM----|    PM----|      PM----------|
|-------------------------|--------------------|
|-------------------------|--------------------|
|-(5)----------5----------|-3------------------|
|-(5)--5-5-5-5-5--5-5-5-5-|-3--3-3-3-3-------0-|
|-(3)--3-3-3-3-3--3-3-3-3-|-1--1-1-1-1-7-5-3-0-|
|-------------------------|------------7-5-3-0-|

[ Tab from: http://www.guitartabs.cc/tabs/a/atreyu/suicide_notes_and_butterfly_kisses_tab.html ]
  D5                                      E5F5 E5C5
      PM|   PM|   PM|   PM|     PM|   PM|
|---------------------------|-----------------------|
|---------------------------|-----------------------|
|---------------------------|-7-----------9-10-9-12-|
|-(0)-----0-----0-----0-----|-x-----0-----x--x-x--x-|
|-(0)-0-0-0-0-0-0-0-0-0-0-0-|-5-0-0-0-0-0-7--8-7-10-|
|-(0)-0-0-0-0-0-0-0-0-0-0-0-|---0-0-0-0-0-----------|
|
|     PM|   PM|   PM|   PM|     PM|   PM-------|
|---------------------------|-----------------------|
|---------------------------|-----------------------|
|---------------------------|-7-------------------5-|
|-(0)-----0-----0-----0-----|-x-----0-------------5-|
|-(0)-0-0-0-0-0-0-0-0-0-0-0-|-5-0-0-0-0-0-2--3-2--3-|
|-(0)-0-0-0-0-0-0-0-0-0-0-0-|---0-0-0-0-0-2--3-2----|

                                Bb5           A5G5 F5D5
|------------------------------|------------------------|
|------------------------------|------------------------|
|-(12)--12-------12-10-----9---|-(9)-9-9---9---9-10-9-7-|
|--------x--------x--x-----x---|-----x-x---x---x--x-x-x-|
|-(10)--10-------10--8-----7---|-(7)-7-7---7---7--8-7-5-|
|------------------------------|------------------------|
|
|        PM----|       PM----|         PM-----------|
|------------------------------|------------------------|
|------------------------------|------------------------|
|--(5)------------5------------|--3---------------------|
|--(5)---5-5-5-5--5----5-5-5-5-|--3----3-3-3-3--------0-|
|--(3)---3-3-3-3--3----3-3-3-3-|--1----1-1-1-1-7--5-3-0-|
|------------------------------|---------------7--5-3-0-|

  D5                    E5F5 E5C5
       PM----|       PM
|---------------|----------------|
|---------------|----------------|
|-(7)-----------|-------9-10-9-5-|
|---------------|-0-----x--x-x-5-|
|-(5)--0--0--0--|-0--0--7--8-7-3-|
|------0--0--0--|-0--0-----------|
|
|      PM----|       PM------|
|---------------|----------------|
|---------------|----------------|
|---------------|--------------5-|
|-(0)-----------|-0------------5-|
|-(0)--0--0--0--|-0--0--2--3-2-3-|
|-(0)--0--0--0--|-0--0--2--3-2---|
                        Bb5        A5G5F5D5
       PM----|    PM----|      PM----------|
|-------------------------|--------------------|
|-------------------------|--------------------|
|-(5)----------5----------|-3------------------|
|-(5)--5-5-5-5-5--5-5-5-5-|-3--3-3-3-3-------0-|
|-(3)--3-3-3-3-3--3-3-3-3-|-1--1-1-1-1-7-5-3-0-|
|-------------------------|------------7-5-3-0-|
|
|      PM----|    PM----|      PM----------|
|-------------------------|--------------------|
|-------------------------|--------------------|
|-(5)----------5----------|-3------------------|
|-(5)--5-5-5-5-5--5-5-5-5-|-3--3-3-3-3-------0-|
|-(3)--3-3-3-3-3--3-3-3-3-|-1--1-1-1-1-7-5-3-0-|
|-------------------------|------------7-5-3-0-|


  D5                                      E5F5 E5C5
      PM|   PM|   PM|   PM|     PM|   PM|
|---------------------------|-----------------------|
|---------------------------|-----------------------|
|---------------------------|-7-----------9-10-9-12-|
|-(0)-----0-----0-----0-----|-x-----0-----x--x-x--x-|
|-(0)-0-0-0-0-0-0-0-0-0-0-0-|-5-0-0-0-0-0-7--8-7-10-|
|-(0)-0-0-0-0-0-0-0-0-0-0-0-|---0-0-0-0-0-----------|
|
|     PM|   PM|   PM|   PM|     PM|   PM-------|
|---------------------------|-----------------------|
|---------------------------|-----------------------|
|---------------------------|-7-------------------5-|
|-(0)-----0-----0-----0-----|-x-----0-------------5-|
|-(0)-0-0-0-0-0-0-0-0-0-0-0-|-5-0-0-0-0-0-2--3-2--3-|
|-(0)-0-0-0-0-0-0-0-0-0-0-0-|---0-0-0-0-0-2--3-2----|


  H.=H
                                 Bb5           A5G5 F5
|------------------------------|-----------------------||
|------------------------------|-----------------------||
|-(12)--12-------12-10-----9---|-(9)-9-9---9---9-10-9--||
|--------x--------x--x-----x---|-----x-x---x---x--x-x--||
|-(10)--10-------10--8-----7---|-(7)-7-7---7---7--8-7--||
|------------------------------|-----------------------||
|
|        PM----|       PM----|         PM--------|
|------------------------------|-----------------------||
|------------------------------|-----------------------||
|--(5)------------5------------|--3--------------------||
|--(5)---5-5-5-5--5----5-5-5-5-|--3----3-3-3-3------3--||
|--(3)---3-3-3-3--3----3-3-3-3-|--1----1-1-1-1-7--5-3--||
|------------------------------|---------------7--5-3--||


 Break
  Q=154
          To Coda
  D5
|----------|------------|------------|--------||
|----------|------------|------------|--------||
|-7--------|-(7)--------|-(7)--------|-(7)----||
|-x--------|------------|------------|--------||
|-5--------|-(5)--------|-(5)--------|-(5)----||
|----------|------------|------------|--------||
|
|----------|------------|------------|--------||
|----------|------------|------------|--------||
|----------|------------|------------|--------||
|-0--------|-(0)--------|-(0)--------|-(0)----||
|-0--------|-(0)--------|-(0)--------|-(0)----||
|-0--------|-(0)--------|-(0)--------|-(0)----||


   Interlude
    D5
    PM--------------|        PM--------------|
||-------------------------|-------------------------|
||o------------------------|-------------------------|
||---------------------7\--|--------------------10\--|
||---------------------x---|---------------------x---|
||o-0-0-0-0-0-0-0-0-0--5\--|-0-0-0-0-0-0-0-0-0---8\--|
||--0-0-0-0-0-0-0-0-0------|-0-0-0-0-0-0-0-0-0-------|
|
|   PM--------------|        PM--------------|
||-------------------------|-------------------------|
||o------------------------|-------------------------|
||-------------------------|-------------------------|
||---------------------0---|---------------------0---|
||o-0-0-0-0-0-0-0-0-0--0---|-0-0-0-0-0-0-0-0-0---0---|
||--0-0-0-0-0-0-0-0-0--0---|-0-0-0-0-0-0-0-0-0---0---|


                                       D.S. al Coda
                           Bb5VIII   D5  F5    F5E5D5
  PM----------------|
                                                      4x
|------------------------|-------------|--------------||
|------------------------|-------------|-------------o||
|--------------------7\--|-------------|--------------||
|--------------------x---|-8-8-8-8-8-0-|-3-3-3-3-3-0--||
|-0-0-0-0-0-0-0-0-0--5\--|-8-8-8-8-8-0-|-3-3-3-3-3-0-o||
|-0-0-0-0-0-0-0-0-0------|-8-8-8-8-8-0-|-3-3-3-3-3-0--||
|
| PM--------------|
|                                                     4x
|------------------------|-------------|--------------||
|------------------------|-------------|-------------o||
|------------------------|-------------|--------------||
|--------------------0---|-8-8-8-8-8-0-|-3-3-3-2-2-0--||
|-0-0-0-0-0-0-0-0-0--0---|-8-8-8-8-8-0-|-3-3-3-2-2-0-o||
|-0-0-0-0-0-0-0-0-0--0---|-8-8-8-8-8-0-|-3-3-3-2-2-0--||

  Q=159
  &
  D5
  Gtr III
|-----------------|------------------------||
|-----------------|------------------------||
|-----------------|------------------------||
|-0S1S2S3S4S5S6S7S|=8S=9S10S11S12S13S14S15-||
|-0S1S2S3S4S5S6S7S|=8S=9S10S11S12S13S14S15-||
|-0S1S2S3S4S5S6S7S|=8S=9S10S11S12S13S14S15-||
|
| Gtr IV
| TP                TP
|-----------------|------------------------||
|-----------------|------------------------||
|-----------------|------------------------||
|-xS==============|=x\---------------------||
|-xS==============|=x\---------------------||
|-xS==============|=x\---------------------||


   Bridge
    D5F5    D5D5VG#5  D5F5    D5D5VG#5  D5F5    D5D5VG#5  D5F5    D5F5E5Eb5
    Gtrs II, III
                                                                    PM--|
||------------------|-----------------|-----------------|-------------------|
||o-----------------|-----------------|-----------------|-------------------|
||------------7-----|-----------7-----|-----------7-----|-------------------|
||--0-3-(3)-0-x--6--|-0-3-(3)-0-x--6--|-0-3-(3)-0-x--6--|-0-3-(3)-0---------|
||o-0-3-(3)-0-5--6--|-0-3-(3)-0-5--6--|-0-3-(3)-0-5--6--|-0-3-(3)-0-3-2-1---|
||--0-3-(3)-0----6--|-0-3-(3)-0----6--|-0-3-(3)-0----6--|-0-3-(3)-0-3-2-1---|


  D5F5    D5D5VG#5  D5F5    D5D5VG#5  D5F5    D5D5VG#5  D5F5    D5F5E5Eb5
                                                                  PM--|
|-----------------|-----------------|-----------------|------------------|
|-----------------|-----------------|-----------------|------------------|
|-----------7-----|-----------7-----|-----------7-----|------------------|
|-0-3-(3)-0-x--6--|-0-3-(3)-0-x--6--|-0-3-(3)-0-x--6--|-0-3-(3)-0--------|
|-0-3-(3)-0-5--6--|-0-3-(3)-0-5--6--|-0-3-(3)-0-5--6--|-0-3-(3)-0-3-2-1--|
|-0-3-(3)-0----6--|-0-3-(3)-0----6--|-0-3-(3)-0----6--|-0-3-(3)-0-3-2-1--| 


  1.
|-----|
|-----|
|-----|
|-----|
|-----|
|-----|

            D5
|---------|---------||
|---------|--------o||
|---------|---------||
|---------|-0-------||
|---------|-0------o||
|---------|-0-------||

  2.
  D5
|----------|------------|------------|--------||
|----------|------------|------------|--------||
|----------|------------|------------|--------||
|-0--------|-(0)--------|-(0)--------|-(0)----||
|-0--------|-(0)--------|-(0)--------|-(0)----||
|-0--------|-(0)--------|-(0)--------|-(0)----||


 Guitar Break
  D5
  Gtr II
|-0-0-0-0-0-0-0-0-|-0-0-0-0-0-0-0-0-|-0-0-0-0-0-0-0-0-|-0--0--0--0--0--0--0--0-|
|-5-5-5-5-5-5-5-5-|-6-6-6-6-6-6-6-6-|-8-8-8-8-8-8-8-8-|-8S10-10-10-10-10-10-10-|
|-----------------|-----------------|-----------------|------------------------|
|-----------------|-----------------|-----------------|------------------------|
|-----------------|-----------------|-----------------|------------------------|
|-----------------|-----------------|-----------------|------------------------|
|
| Gtr III
|-----------------|-----------------|-----------------|------------------------|
|-----------------|-----------------|-----------------|------------------------|
|-----------------|-----------------|-----------------|------------------------|
|-0---------------|-----------------|-----------------|------------------------|
|-0---------------|-----------------|-----------------|------------------------|
|-0---------------|-----------------|-----------------|------------------------|

    D5
||--0-0-0-0-0-0-0-0-|--0--0-0-0-0-0-0-0-|
||o-5-5-5-5-5-5-5-5-|--6--6-6-6-6-6-6-6-|
||------------------|-------------------|
||------------------|-------------------|
||o-----------------|-------------------|
||------------------|-------------------|
|
||------------------|-------------------|
||o-----------------|-------------------|
||------------------|-------------------|
||--0---------------|-(0)---------------|
||o-0---------------|-(0)---------------|
||--0---------------|-(0)---------------|


|--0--0-0-0-0-0-0-0-|--0---0--0--0--0--0--0--0---||
|--8--8-8-8-8-8-8-8-|--8S=10-10-10-10-10-10-10--o||
|-------------------|----------------------------||
|-------------------|----------------------------||
|-------------------|---------------------------o||
|-------------------|----------------------------||
|
|-------------------|----------------------------||
|-------------------|---------------------------o||
|-------------------|----------------------------||
|-(0)---------------|-(0)------------------------||
|-(0)---------------|-(0)-----------------------o||
|-(0)---------------|-(0)------------------------||

  D5
|-0-0-0-0-0-0-0-0-|--0--0-0-0-0-0-0-0-|
|-5-5-5-5-5-5-5-5-|--6--6-6-6-6-6-6-6-|
|-----------------|-------------------|
|-----------------|-------------------|
|-----------------|-------------------|
|-----------------|-------------------|
|
|-----------------|-------------------|
|-----------------|-------------------|
|-----------------|-------------------|
|-0---------------|-(0)---------------|
|-0---------------|-(0)---------------|
|-0---------------|-(0)---------------|


|-0-0-0-0-0-0-0-0-|-0--0--0--0--0--0--0--0-||
|-8-8-8-8-8-8-8-8-|-8S10-10-10-10-10-10-10-||
|-----------------|------------------------||
|-----------------|------------------------||
|-----------------|------------------------||
|-----------------|------------------------||
|
| PM----------------|
|-----------------|------------------------||
|-----------------|------------------------||
|-----------------|------------------------||
|-----------------|-------------0--0--0--0-||
|-0-0-0-0-0-0-0-0-|-0--0--0--0--0--0--0--0-||
|-0-0-0-0-0-0-0-0-|-0--0--0--0--0--0--0--0-||


   Breakdown
    D5                F5                Bb5VIII           F5      E5
    Gtrs II, III
                                                                            4x
||------------------|-----------------|-----------------|-------------------||
||o-----------------|-----------------|-----------------|------------------o||
||------------------|-----------------|-----------------|-------------------||
||--0-0-0-0-0-0-0-0-|-3-3-3-3-3-3-3-3-|-8-8-8-8-8-8-8-8-|-3-3-3-3-2-2-2-2---||
||o-0-0-0-0-0-0-0-0-|-3-3-3-3-3-3-3-3-|-8-8-8-8-8-8-8-8-|-3-3-3-3-3-3-3-3--o||
||--0-0-0-0-0-0-0-0-|-3-3-3-3-3-3-3-3-|-8-8-8-8-8-8-8-8-|-3-3-3-3-2-2-2-2---||


  D5             Bb5VIII         A5          F5    C/E
  Gtr II
|--------------|---------------|-----------|-----------------|
|--------------|---------------|-----------|-----------------|
|-7-------9s10s|=9-------10s12s|=10--------|-15----14--12----|
|-x-------x----|---------------|-----------|--x-----x---x----|
|-5-------7s=8s|=7--------8s10s|==8--------|-13----12--10----|
|--------------|---------------|-----------|-----------------|
|
| Gtr III
|--------------|---------------|-----------|-----------------|
|--------------|---------------|-----------|-----------------|
|--------------|---------------|-----------|-----------------|
|-0------------|-8-------------|--7--------|--3-----2--------|
|-0------------|-8-------------|--7--------|--3-----3--------|
|-0------------|-8-------------|--7--------|--3-----2--------|



  D5             Bb5VIII         A5          N.C.
|--------------|---------------|-----------|-------------------||
|--------------|---------------|-----------|-------------------||
|-7-------9s10s|=9-------10s12s|=10--------|-15-14-12-14-12-10-||
|-x-------x----|---------------|-----------|--x--x--x--x--x--x-||
|-5-------7s=8s|=7--------8s10s|==8--------|-13-12-10-12-10--8-||
|--------------|---------------|-----------|-------------------||
|
|--------------|---------------|-----------|-------------------||
|--------------|---------------|-----------|-------------------||
|--------------|---------------|-----------|-12-10--9-10--9--7-||
|-0------------|-8-------------|--7--------|--x--x--x--x--x--x-||
|-0------------|-8-------------|--7--------|-10--8--7--8--7--5-||
|-0------------|-8-------------|--7--------|-------------------||


   Outro
    Q.=157
    D5
   12/8
||--------------------------------|--------------------------------|
||o-------------------------------|--------------------------------|
||--10-10-10-9-9-9-10-10-10-7-7-7-|-10-10-10-9-9-9-10-10-10-7-7-7--|
||---x--x--x-x-x-x--x--x--x-x-x-x-|--x--x--x-x-x-x--x--x--x-x-x-x--|
||o--8--8--8-7-7-7--8--8--8-5-5-5-|--8--8--8-7-7-7--8--8--8-5-5-5--|
||--------------------------------|--------------------------------|
|
||--------------------------------|--------------------------------|
||o-------------------------------|--------------------------------|
||--------------------------------|--------------------------------|
||---0--0--0-0-0-0--0--0--0-0-0-0-|--0--0--0-0-0-0--0--0--0-0-0-0--|
||o--0--0--0-0-0-0--0--0--0-0-0-0-|--0--0--0-0-0-0--0--0--0-0-0-0--|
||---0--0--0-0-0-0--0--0--0-0-0-0-|--0--0--0-0-0-0--0--0--0-0-0-0--|


  Bb5VIII
|-------------------------------------|-------------------------------------|
|-------------------------------------|-------------------------------------|
|-14-14-14-17-17-17-15-15-15-14-14-14-|-12-12-12-14-14-14-10-10-10-12-12-12-|
|--x--x--x--x--x--x--x--x--x--x--x--x-|--x--x--x--x--x--x--x--x--x--x--x--x-|
|-12-12-12-15-15-15-13-13-13-12-12-12-|-10-10-10-12-12-12--8--8--8-10-10-10-|
|-------------------------------------|-------------------------------------|
|
|-------------------------------------|-------------------------------------|
|-------------------------------------|-------------------------------------|
|-------------------------------------|-------------------------------------|
|--8--8--8--8--8--8--8--8--8--8--8--8-|--8--8--8--8--8--8--8--8--8--8--8--8-|
|--8--8--8--8--8--8--8--8--8--8--8--8-|--8--8--8--8--8--8--8--8--8--8--8--8-|
|--8--8--8--8--8--8--8--8--8--8--8--8-|--8--8--8--8--8--8--8--8--8--8--8--8-|


  A5
|-------------------------------|-------------------------------|
|-------------------------------|-------------------------------|
|-10-10-10-9-9-9-10-10-10-7-7-7-|-10-10-10-9-9-9-10-10-10-7-7-7-|
|--x--x--x-x-x-x--x--x--x-x-x-x-|--x--x--x-x-x-x--x--x--x-x-x-x-|
|--8--8--8-7-7-7--8--8--8-5-5-5-|--8--8--8-7-7-7--8--8--8-5-5-5-|
|-------------------------------|-------------------------------|
|
|-------------------------------|-------------------------------|
|-------------------------------|-------------------------------|
|-------------------------------|-------------------------------|
|--7--7--7-7-7-7--7--7--7-7-7-7-|--7--7--7-7-7-7--7--7--7-7-7-7-|
|--7--7--7-7-7-7--7--7--7-7-7-7-|--7--7--7-7-7-7--7--7--7-7-7-7-|
|--7--7--7-7-7-7--7--7--7-7-7-7-|--7--7--7-7-7-7--7--7--7-7-7-7-|


  F5
|-------------------------------------|--------------------------------------||
|-------------------------------------|-------------------------------------o||
|-12-12-12-12-12-12-14-14-14-14-14-14-|-15-15-15-15-15-15-14-14-14-14-14-14--||
|--x--x--x--x--x--x--x--x--x--x--x--x-|--x--x--x--x--x--x--x--x--x--x--x--x--||
|-10-10-10-10-10-10-12-12-12-12-12-12-|-13-13-13-13-13-13-12-12-12-12-12-12-o||
|-------------------------------------|--------------------------------------||
|
|-------------------------------------|--------------------------------------||
|-------------------------------------|-------------------------------------o||
|-------------------------------------|--------------------------------------||
|--3--3--3--3--3--3--3--3--3--3--3--3-|--3--3--3--3--3--3--3--3--3--3--3--3--||
|--3--3--3--3--3--3--3--3--3--3--3--3-|--3--3--3--3--3--3--3--3--3--3--3--3-o||
|--3--3--3--3--3--3--3--3--3--3--3--3-|--3--3--3--3--3--3--3--3--3--3--3--3--||


    D5
||--------------------------------|----------------------------------|
||o-------------------------------|----------------------------------|
||--10-10-10-9-9-9-10-10-10-7-7-7-|-10-10-10-9-9-9-10-10-10--7--7--7-|
||---x--x--x-x-x-x--x--x--x-x-x-x-|--x--x--x-x-x-x--x--x--x--x--x--x-|
||o--8--8--8-7-7-7--8--8--8-5-5-5-|--8--8--8-7-7-7--8--8--8--5--5--5-|
||--------------------------------|----------------------------------|
|
||--------------------------------|----------------------------------|
||o-------------------------------|----------------------------------|
||--------------------------------|--7--7--7-9-9-9-10-10-10-12-12-12-|
||---0--0--0-0-0-0--0--0--0-0-0-0-|--x--x--x-x-x-x--x--x--x--x--x--x-|
||o--0--0--0-0-0-0--0--0--0-0-0-0-|--5--5--5-7-7-7--8--8--8-10-10-10-|
||---0--0--0-0-0-0--0--0--0-0-0-0-|----------------------------------|


  Bb5VIII
|-------------------------------------|-------------------------------------|
|-------------------------------------|-------------------------------------|
|-14-14-14-17-17-17-15-15-15-14-14-14-|-12-12-12-14-14-14-10-10-10-12-12-12-|
|--x--x--x--x--x--x--x--x--x--x--x--x-|--x--x--x--x--x--x--x--x--x--x--x--x-|
|-12-12-12-15-15-15-13-13-13-12-12-12-|-10-10-10-12-12-12--8--8--8-10-10-10-|
|-------------------------------------|-------------------------------------|
|
|-------------------------------------|-------------------------------------|
|-------------------------------------|-------------------------------------|
|-------------------------------------|--7--7--7--9--9--9-10-10-10-12-12-12-|
|--8--8--8--8--8--8--8--8--8--8--8--8-|--x--x--x--x--x--x--x--x--x--x--x--x-|
|--8--8--8--8--8--8--8--8--8--8--8--8-|--5--5--5--7--7--7--8--8--8-10-10-10-|
|--8--8--8--8--8--8--8--8--8--8--8--8-|-------------------------------------|


  A5
|-------------------------------|----------------------------------|
|-------------------------------|----------------------------------|
|-10-10-10-9-9-9-10-10-10-7-7-7-|-10-10-10-9-9-9-10-10-10--7--7--7-|
|--x--x--x-x-x-x--x--x--x-x-x-x-|--x--x--x-x-x-x--x--x--x--x--x--x-|
|--8--8--8-7-7-7--8--8--8-5-5-5-|--8--8--8-7-7-7--8--8--8--5--5--5-|
|-------------------------------|----------------------------------|
|
|-------------------------------|----------------------------------|
|-------------------------------|----------------------------------|
|-------------------------------|--7--7--7-9-9-9-10-10-10-12-12-12-|
|--7--7--7-7-7-7--7--7--7-7-7-7-|--x--x--x-x-x-x--x--x--x--x--x--x-|
|--7--7--7-7-7-7--7--7--7-7-7-7-|--5--5--5-7-7-7--8--8--8-10-10-10-|
|--7--7--7-7-7-7--7--7--7-7-7-7-|----------------------------------|


  1.
  F5
|-------------------------------------|--------------------------------------||
|-------------------------------------|-------------------------------------o||
|-12-12-12-12-12-12-14-14-14-14-14-14-|-15-15-15-15-15-15-14-14-14-14-14-14--||
|--x--x--x--x--x--x--x--x--x--x--x--x-|--x--x--x--x--x--x--x--x--x--x--x--x--||
|-10-10-10-10-10-10-12-12-12-12-12-12-|-13-13-13-13-13-13-12-12-12-12-12-12-o||
|-------------------------------------|--------------------------------------||
|
|-------------------------------------|--------------------------------------||
|-------------------------------------|-------------------------------------o||
|-------------------------------------|--------------------------------------||
|--3--3--3--3--3--3--3--3--3--3--3--3-|--3--3--3--3--3--3--3--3--3--3--3--3--||
|--3--3--3--3--3--3--3--3--3--3--3--3-|--3--3--3--3--3--3--3--3--3--3--3--3-o||
|--3--3--3--3--3--3--3--3--3--3--3--3-|--3--3--3--3--3--3--3--3--3--3--3--3--||


  2.
  F5                                    N.C.
|-------------------------------------|-------------------------|
|-------------------------------------|-------------------------|
|-12-12-12-12-12-12-14-14-14-14-14-14-|-15--14--12--14--12--10--|
|--x--x--x--x--x--x--x--x--x--x--x--x-|--x---x---x---x---x---x--|
|-10-10-10-10-10-10-12-12-12-12-12-12-|-13--12--10--12--10---8--|
|-------------------------------------|-------------------------|
|
|-------------------------------------|-------------------------|
|-------------------------------------|-------------------------|
|-------------------------------------|-12--10---9--10---9---7--|
|--3--3--3--3--3--3--3--3--3--3--3--3-|--x---x---x---x---x---x--|
|--3--3--3--3--3--3--3--3--3--3--3--3-|-10---8---7---8---7---5--|
|--3--3--3--3--3--3--3--3--3--3--3--3-|-------------------------|


  D5
|--------------|--------*|
|--------------|--------*|
|-7------------|-(7)----*|
|-x------------|--------*|
|-5------------|-(5)----*|
|--------------|--------*|
|
|--------------|--------*|
|--------------|--------*|
|--------------|--------*|
|-0------------|-(0)----*|
|-0------------|-(0)----*|
|-0------------|-(0)----*|



                          AT LEAST I KNOW I'M A SINNER


Gtr I (C G C F A D) - 'Untitled'
Gtr II (C G C F A D) - 'Untitled'
Gtr III (C G C F A D) - 'Untitled'
Gtr IV (C G C F A D) - 'Untitled'

 Intro
  Fast Rock Q=187
  N.D5                      GbF5D5N.C.
 4/4
  Gtr I
    PM--------------------------|
|-------------------------|-------------------||
|-------------------------|-------------------||
|-7-----------------------|-------------------||
|-x-----------------------|-------------------||
|-5-0-0-0-0-0-0-0-0-0-0-0-|-4-3-0-3b3.5--(3)--|| 
|---0-0-0-0-0-0-0-0-0-0-0-|-4-3-0-------------||
|
| Gtr II
|   PM--------------------------|
|-------------------------|-------------------||
|-------------------------|-------------------||
|-7-----------------------|-------------------||
|-x-----------------------|-------------------||
|-5-0-0-0-0-0-0-0-0-0-0-0-|-4-3-0-3b3.5--(3)--||
|---0-0-0-0-0-0-0-0-0-0-0-|-4-3-0-------------||
  N.C.
    PM|   PM|    PM--|    PM|   PM|     PM|   PM|    PM|      PM|   PM|   PM
|------------------|------------------|------------------|------------------|
|------------------|------------------|------------------|------------------|
|------------------|------------------|------------------|------------------|
|------------------|------------------|------------------|------------------|
|-5-----1------8---|----7-----4-----5-|-----1------8-----|--7-----4-----5---|
|---0-0---0-0----0-|-0----0-0---0-0---|-0-0---0-0----0-0-|----0-0---0-0---0-|
|
|   PM|   PM|    PM--|    PM|   PM|     PM|   PM|    PM|      PM|   PM|   PM
|------------------|------------------|------------------|------------------|
|------------------|------------------|------------------|------------------|
|------------------|------------------|------------------|------------------| 
|------------------|------------------|------------------|------------------|
|-8-----5-----12---|---10-----7-----8-|-----5-----12-----|-10-----7-----8---|
|---0-0---0-0----0-|-0----0-0---0-0---|-0-0---0-0----0-0-|----0-0---0-0---0-|


  N.C.                                    D5                    N.C.
  PM  PM|    PM|      PM|              PM-------------------|
|-------------------|---------------|-------------------------|---------------||
|-------------------|---------------|-------------------------|---------------||
|-------------------|---------------|-------------------------|-10----9---5---||
|-------------------|---------------|-------------------------|--x----x---x---||
|---1------8------7-|-----4--4----5-|-(5)-0-0-0-0-0-0-0-0-0-0-|--8----7---3---||
|-0---0-0----0-0----|-0-0-------0---|-----0-0-0-0-0-0-0-0-0-0-|---------------||
|
| PM  PM|    PM|      PM|              PM-------------------|
|-------------------|---------------|-------------------------|---------------||
|-------------------|---------------|-------------------------|---------------||
|-------------------|---------------|-------------------------|-14---12---9---||
|-------------------|---------------|-------------------------|--x----x---x---||
|---5-----12-----10-|-----7--7----8-|-(8)-0-0-0-0-0-0-0-0-0-0-|-12---10---7---||
|-0---0-0----0-0----|-0-0-------0---|-----0-0-0-0-0-0-0-0-0-0-|---------------||


 Verse
  N.C.
    PM|   PM|   PM--|    PM|           PM|   PM|    PM--|    PM|
|-----------------|----------------|------------------|-----------------|
|-----------------|----------------|------------------|-----------------|
|-----------------|----------------|------------------|-----------------|
|-----------------|----------------|------------------|-----------------|
|-5-----1-----8---|----7-----4--4--|-5-----1------8---|----7------4--4--|
|---0-0---0-0---0-|-0----0-0-------|---0-0---0-0----0-|-0----0-0--------|
|
|   PM|   PM|   PM--|    PM|           PM|   PM|    PM--|    PM|
|-----------------|----------------|------------------|-----------------|
|-----------------|----------------|------------------|-----------------|
|-----------------|----------------|------------------|-----------------|
|-----------------|----------------|------------------|-----------------|
|-8-----5-----0---|---10-----7--7--|-8-----5-----15---|---13-----12--7--|
|---0-0---0-0---0-|-0----0-0-------|---0-0---0-0----0-|-0----0-0--------|


  N.C.
    PM|   PM|    PM--|    PM|           PM|   PM|
|------------------|----------------|-----------------|
|------------------|----------------|-----------------|
|------------------|----------------|-----------------|
|------------------|----------------|-----------------|
|-5-----1------8---|----7-----4--4--|-5-----1-----1---|
|---0-0---0-0----0-|-0----0-0-------|---0-0---0-0-----|
|
|   PM|   PM|    PM--|    PM|           PM|   PM|   PM
|------------------|----------------|-----------------|
|------------------|----------------|-----------------|
|------------------|----------------|-----------------|
|------------------|----------------|-----------------|
|-8-----5-----12---|---10-----7--7--|-8-----5-----5---|
|---0-0---0-0----0-|-0----0-0-------|---0-0---0-0---0-|


  N.C.
|--------------|--------||
|--------------|--------||
|-10----9---5--|-(5)----||
|--x----x---x--|--------||
|--8----7---3--|-(3)----||
|--------------|--------||
|
|--------------|--------||
|--------------|--------||
|-14---12---9--|-(9)----||
|--x----x---x--|--------||
|-12---10---7--|-(7)----||
|--------------|--------||


   Bridge
    D5                               Fsus2
||-----------------|---------------|----------------|----------------|
||o----------------|---------------|----------------|----------------|
||--------7-(7)----|-(7)-------(7)-|----------------|----------------|
||------7----------|---------------|-------5-(5)----|-(5)-------(5)--|
||o-5--------------|---------------|---3------------|----------------|
||----0------------|---------------|-3---3----------|----------------|
|
||-----------------|---------------|----------------|----------------|
||o----------------|---------------|----------------|----------------|
||-----------------|---------------|----------------|----------------|
||--0--------------|-(0)-----------|-5--------------|-(5)------------|
||o-0--------------|-(0)-----------|-3--------------|-(3)------------|
||--0--------------|-(0)-----------|-3--------------|-(3)------------|


                                   1.
  Am                                N.C.
|-----------------|---------------|-----------------|-----------------------||
|-----------------|---------------|-----------------|----------------------o||
|-----------------|---------------|-------2h3p2-----|-----2h=3--------------||
|--------8-(8)----|-(8)-------(8)-|---3-----------3-|----------------3-2----||
|----5------------|---------------|-----------------|--------------1-------o||
|--5---5----------|---------------|-----------------|-----------------------||
|
|                                   PM|   PM  PM|      PM|      PM
|-----------------|---------------|-----------------|-----------------------||
|-----------------|---------------|-----------------|----------------------o||
|-----------------|---------------|-----------------|-----------------------||
|-^8--------------|-(8)-----------|-----------------|-----------------------||
|-^5--------------|-(5)-----------|-----8---8-----8-|-------10----10-8-7-5-o||
|-^5--------------|-(5)-----------|-8-8---8---8-8---|-10-10----10-----------||
  2.
  N.C.
|-----------------|----------------------||
|-----------------|----------------------||
|-------2h3p2-----|-----2h=3-------------||
|---3-----------3-|----------------3-2-0-||
|-----------------|--------------1-----0-||
|-----------------|----------------------||
|
| PM|   PM  PM|      PM|      PM
|-----------------|----------------------||
|-----------------|----------------------||
|-----------------|----------------------||
|-----------------|--------------------0-||
|-----8---8-----8-|-------10----10-8-7-0-||
|-8-8---8---8-8---|-10-10----10----------||


 Chorus
  $
  G5  Gsus2
  PM|
|----------------|-----------------|
|----------------|-----------------|
|----------------|-----------------|
|-----7--7-7-7-7-|-7-7-7-7-7-7-7-7-|
|-5-5-5--5-5-5-5-|-5-5-5-5-5-5-5-5-|
|-5-5-5--5-5-5-5-|-5-5-5-5-5-5-5-5-|
|
| PM|
|----------------|-----------------|
|----------------|-----------------|
|----------------|-----------------|
|-----5--5-5-5-5-|-5-5-5-5-5-5-5-5-|
|-5-5-5--5-5-5-5-|-5-5-5-5-5-5-5-5-|
|-5-5-5--5-5-5-5-|-5-5-5-5-5-5-5-5-|


  Bbsus2
|-----------------------|-------------------------|
|-----------------------|-------------------------|
|-----------------------|-------------------------|
|-10-10-10--10-10-10-10-|-10-10-10-10-10-10-10-10-|
|--8--8--8---8--8--8--8-|--8--8--8--8--8--8--8--8-|
|--8--8--8---8--8--8--8-|--8--8--8--8--8--8--8--8-|
|
|-----------------------|-------------------------|
|-----------------------|-------------------------|
|-----------------------|-------------------------|
|-10-10-10--10-10-10-10-|-10-10-10-10-10-10-10-10-|
|--8--8--8---8--8--8--8-|--8--8--8--8--8--8--8--8-|
|--8--8--8---8--8--8--8-|--8--8--8--8--8--8--8--8-|


    Gsus2
||-----------------|-----------------|
||o----------------|-----------------|
||-----------------|-----------------|
||--7-7-7--7-7-7-7-|-7-7-7-7-7-7-7-7-|
||o-5-5-5--5-5-5-5-|-5-5-5-5-5-5-5-5-|
||--5-5-5--5-5-5-5-|-5-5-5-5-5-5-5-5-|



|
||-----------------|-----------------|
||o----------------|-----------------|
||-----------------|-----------------|
||--5-5-5--5-5-5-5-|-5-5-5-5-5-5-5-5-|
||o-5-5-5--5-5-5-5-|-5-5-5-5-5-5-5-5-|
||--5-5-5--5-5-5-5-|-5-5-5-5-5-5-5-5-|


  Bbsus2
|-----------------------|---------------------------||
|-----------------------|--------------------------o||
|-----------------------|---------------------------||
|-10-10-10--10-10-10-10-|-10-10-10-10-10-10-10-10---||
|--8--8--8---8--8--8--8-|--8--8--8--8--8--8--8--8--o||
|--8--8--8---8--8--8--8-|--8--8--8--8--8--8--8--8---||
|
|-----------------------|---------------------------||
|-----------------------|--------------------------o||
|-----------------------|---------------------------||
|-10-10-10--10-10-10-10-|-10-10-10-10-10-10-10-10---||
|--8--8--8---8--8--8--8-|--8--8--8--8--8--8--8--8--o||
|--8--8--8---8--8--8--8-|--8--8--8--8--8--8--8--8---||


  Gsus2
|----------------|-----------------|
|----------------|-----------------|
|----------------|-----------------|
|-7-7-7--7-7-7-7-|-7-7-7-7-7-7-7-7-|
|-5-5-5--5-5-5-5-|-5-5-5-5-5-5-5-5-|
|-5-5-5--5-5-5-5-|-5-5-5-5-5-5-5-5-|
|
|----------------|-----------------|
|----------------|-----------------|
|----------------|-----------------|
|-5-5-5--5-5-5-5-|-5-5-5-5-5-5-5-5-|
|-5-5-5--5-5-5-5-|-5-5-5-5-5-5-5-5-|
|-5-5-5--5-5-5-5-|-5-5-5-5-5-5-5-5-|


  Bbsus2                                       D5
|-----------------------|------------------------||
|-----------------------|------------------------||
|-----------------------|------------------------||
|-10-10-10--10-10-10-10-|-10-10-10-10-10-10-10-0-||
|--8--8--8---8--8--8--8-|--8--8--8--8--8--8--8-0-||
|--8--8--8---8--8--8--8-|--8--8--8--8--8--8--8-0-||
|
|-----------------------|------------------------||
|-----------------------|------------------------||
|-----------------------|----------------------5-||
|-10-10-10--10-10-10-10-|-10-10-10-10-10-10-10---||
|--8--8--8---8--8--8--8-|--8--8--8--8--8--8--8---||
|--8--8--8---8--8--8--8-|--8--8--8--8--8--8--8---||


   Interlude
    D5                                E5 F5G5
||--------------------|------------------------|
||o-------------------|------------------------|
||--------------------|------------------------|
||--(0)-0-0---0-0-0---|-0--0--0-----0--2-3-/5--|
||o-(0)-0-0---0-0-0---|-0--0--0-----0--2-3-/5--|
||--(0)-0-0---0-0-0---|-0--0--0-----0--2-3-/5--|
|
||--------------------|------------------------|
||o-------------------|------------------------|
||--(5)s7-7-7-7s9-9-9-|-9s10-10-10-12-10-9-(9)-|
||--------------------|--------------------10--|
||o-------------------|------------------------|
||--------------------|------------------------|


                                     F5 D5
|------------------------|-----------------|
|------------------------|-----------------|
|------------------------|-----------------|
|--(5)--5--5-----5-5-5---|-5-5-5---5-3--0--|
|--(5)--5--5-----5-5-5---|-5-5-5---5-3--0--|
|--(5)--5--5-----5-5-5---|-5-5-5---5-3--0--|
|
|------------------------|-----------------|
|------------------------|-----------------|
|------------------------|--------------5--|
|-(10)-10-10-10-10s8-8-8-|-8s7-7-7-7-5-----|
|------------------------|-----------------| 
|------------------------|-----------------|


  1.
                                    F5   Bb5
|-------------------|------------------------|
|-------------------|------------------------|
|-------------------|------------------------|
|-(0)-0-0---0-0-0---|-0--0--0-----0--3----8--|
|-(0)-0-0---0-0-0---|-0--0--0-----0--3----8--|
|-(0)-0-0---0-0-0---|-0--0--0-----0--3----8--|
|
|-------------------|------------------------|
|-------------------|------------------------|
|-(5)s7-7-7-7s9-9-9-|-9s10-10-10-12-10-9-(9)-|
|-------------------|--------------------10--|
|-------------------|------------------------|
|-------------------|------------------------|


                         F5                     D5
|--------------------------|-----------------------||
|--------------------------|----------------------o||
|--------------------------|-----------------------||
|--(8)--8--8-----8-8-(8)-3-|-(3)--3-3---3-3-(3)-0--||
|--(8)--8--8-----8-8-(8)-3-|-(3)--3-3---3-3-(3)-0-o||
|--(8)--8--8-----8-8-(8)-3-|-(3)--3-3---3-3-(3)-0--||
|
|--------------------------|-----------------------||
|--------------------------|----------------------o||
|--------------------------|--------------------5--||
|-(10)-10-10-10-10s8--8--8-|--7h8p7-5s3-3-5--7-----||
|--------------------------|----------------------o||
|--------------------------|-----------------------||


  2.
         To Coda
  D5                                F5   Bb5
|-------------------|------------------------|
|-------------------|------------------------|
|-------------------|------------------------|
|-(0)-0-0---0-0-0---|-0--0--0-----0--3----8--|
|-(0)-0-0---0-0-0---|-0--0--0-----0--3----8--|
|-(0)-0-0---0-0-0---|-0--0--0-----0--3----8--|
|
|-------------------|------------------------|
|-------------------|------------------------|
|-(5)s7-7-7-7s9-9-9-|-9s10-10-10-12-10-9-(9)-|
|-------------------|--------------------10--|
|-------------------|------------------------|
|-------------------|------------------------|


                         F5
|--------------------------|---------------------||
|--------------------------|---------------------||
|--------------------------|---------------------||
|--(8)--8--8-----8-8-(8)-3-|-(3)--3-3---3-3-(3)--||
|--(8)--8--8-----8-8-(8)-3-|-(3)--3-3---3-3-(3)--||
|--(8)--8--8-----8-8-(8)-3-|-(3)--3-3---3-3-(3)--||
|
|--------------------------|---------------------||
|--------------------------|---------------------||
|--------------------------|---------------------||
|-(10)-10-10-10-10s8--8--8-|--7h8p7-5s3-3-5--7---||
|--------------------------|---------------------||
|--------------------------|---------------------||


   Bridge
    D5                               Fsus2
||-----------------|---------------|----------------|----------------|
||o----------------|---------------|----------------|----------------|
||--------7-(7)----|-(7)-------(7)-|----------------|----------------|
||------7----------|---------------|-------5-(5)----|-(5)-------(5)--| 
||o-5--------------|---------------|---3------------|----------------|
||----0------------|---------------|-3---3----------|----------------|
|
||-----------------|---------------|----------------|----------------|
||o----------------|---------------|----------------|----------------|
||-----------------|---------------|----------------|----------------|
||--0--------------|-(0)-----------|-5--------------|-(5)------------|
||o-0--------------|-(0)-----------|-3--------------|-(3)------------|
||--0--------------|-(0)-----------|-3--------------|-(3)------------|


                                   1.
  Am                                N.C.
|-----------------|---------------|-----------------|-----------------------||
|-----------------|---------------|-----------------|----------------------o||
|-----------------|---------------|-------2h3p2-----|-----2h=3--------------||
|--------8-(8)----|-(8)-------(8)-|---3-----------3-|----------------3-2----||
|----5------------|---------------|-----------------|--------------1-------o||
|--5---5----------|---------------|-----------------|-----------------------||
|
|                                   PM|   PM  PM|      PM|      PM
|-----------------|---------------|-----------------|-----------------------||
|-----------------|---------------|-----------------|----------------------o||
|-----------------|---------------|-----------------|-----------------------||
|-^8--------------|-(8)-----------|-----------------|-----------------------||
|-^5--------------|-(5)-----------|-----8---8-----8-|-------10----10-8-7-5-o||
|-^5--------------|-(5)-----------|-8-8---8---8-8---|-10-10----10-----------||


  2.
                                       D5
|-----------------|----------------------||
|-----------------|----------------------||
|-------2h3p2-----|-----2h=3-------------||
|---3-----------3-|----------------3-2-0-||
|-----------------|--------------1-----0-||
|-----------------|--------------------0-||
|
| PM|   PM  PM|      PM|      PM
|-----------------|----------------------||
|-----------------|----------------------||
|-----------------|----------------------||
|-----------------|--------------------0-||
|-----8---8-----8-|-------10----10-8-7-0-||
|-8-8---8---8-8---|-10-10----10--------0-||


   Pre-Chorus
    D5       N.C.
||--------------------|---------------------|
||o-------------------|---------------------|
||-----------10s=9--7-|-------------------5-|
||--(0)-0-0---x-----x-|-------------------x-|
||o-(0)-0-0---8s=7--5-|-----12-10-8-7-8-7-3-|
||--(0)-0-0-----------|---------------------|
|
||--------------------|---------------------|
||o-------------------|---------------------|
||-----------14s12--9-|-(9)---------------9-|
||--(0)-------x-----x-|-------------------x-|
||o-(0)------12s10--7-|-(7)---------------7-|
||--(0)---------------|---------------------|


                                               D5
                                                   3x
|---------------------|----------------------------||
|---------------------|---------------------------o||
|-(5)-5-5--5-5-(5)--6-|--(6)--6--6---6--6--(6)-----||
|-----x-x--x-x------x-|-------x--x---x--x------0---||
|-(3)-3-3--3-3-(3)--4-|--(4)--4--4---4--4--(4)-0--o||
|---------------------|------------------------0---||
|
|                                                  3x
|---------------------|----------------------------||
|---------------------|---------------------------o||
|-(9)-9-9--9-9-(9)-10-|-(10)-10-10--10-10-(10)-----||
|-----x-x--x-x------x-|-------x--x---x--x------0---||
|-(7)-7-7--7-7-(7)--8-|--(8)--8--8---8--8--(8)-0--o||
|---------------------|------------------------0---||


  D5       N.C.
|-------------------|---------------------|
|-------------------|---------------------|
|----------10s=9--7-|-------------------5-|
|-(0)-0-0---x-----x-|-------------------x-|
|-(0)-0-0---8s=7--5-|-----12-10-8-7-8-7-3-|
|-(0)-0-0-----------|---------------------|
|
|-------------------|---------------------|
|-------------------|---------------------|
|----------14s12--9-|-(9)---------------9-|
|-(0)-------x-----x-|-------------------x-|
|-(0)------12s10--7-|-(7)---------------7-|
|-(0)---------------|---------------------|


                              D.S. al Coda
|---------------------|-----------------------||
|---------------------|-----------------------||
|-(5)-5-5--5-5-(5)--6-|--(6)--6--6---6--6--6--||
|-----x-x--x-x------x-|-------x--x---x--x--x--||
|-(3)-3-3--3-3-(3)--4-|--(4)--4--4---4--4--4--||
|---------------------|-----------------------||
|
|---------------------|-----------------------||
|---------------------|-----------------------||
|-(9)-9-9--9-9-(9)-10-|-(10)-10-10--10-10-10--||
|-----x-x--x-x------x-|-------x--x---x--x--x--||
|-(7)-7-7--7-7-(7)--8-|--(8)--8--8---8--8--8--||
|---------------------|-----------------------||


  &
  D5            F5   Bb5                          F5
|------------------------|--------------------------|--------------------|
|------------------------|--------------------------|--------------------|
|------------------------|--------------------------|--------------------|
|-0--0--0-----0--3----8--|--(8)--8--8-----8-8-(8)-3-|-(3)--3-3---3-3-3-3-|
|-0--0--0-----0--3----8--|--(8)--8--8-----8-8-(8)-3-|-(3)--3-3---3-3-3-3-|
|-0--0--0-----0--3----8--|--(8)--8--8-----8-8-(8)-3-|-(3)--3-3---3-3-3-3-|
|
|------------------------|--------------------------|--------------------|
|------------------------|--------------------------|--------------------|
|-9s10-10-10-12-10-9-(9)-|--------------------------|--------------------|
|--------------------10--|-(10)-10-10-10-10s8--8--8-|--7h8p7-5s3-3-5-7---|
|------------------------|--------------------------|--------------------|
|------------------------|--------------------------|--------------------|


  D5
|----------|--------||
|----------|--------||
|----------|--------||
|-0--------|-(0)----||
|-0--------|-(0)----||
|-0--------|-(0)----||
|
|----------|--------||
|----------|--------||
|-7--------|-(7)----||
|----------|--------||
|----------|--------||
|----------|--------||


 Breakdown
  Faster Q=191
  Bsus2                        N.C.
  Gtr III                      Gtr I
|---------------------|----------------|
|---------------------|----------------|
|-10-10-10-10---10-10-|-10-10----x-----|
|-10-10-10-10---10-10-|-10-10----x-----|
|--8--8--8--8----8--8-|--8--8--x---x---|
|--8--8--8--8----8--8-|--8--8--x---x---|
|
| Gtr IV                       Gtr II
|---------------------|----------------|
|---------------------|----------------|
|-10-10-10-10---10-10-|-10-10----x-----|
|-10-10-10-10---10-10-|-10-10----x-----|
|--8--8--8--8----8--8-|--8--8--x---x---|
|--8--8--8--8----8--8-|--8--8--x---x---|

  Bbsus2
|-------------------------|-------------------------|
|-------------------------|-------------------------|
|-------------10-10-------|-------10-10-------10-10-|
|-------------10-10-------|-------10-10-------10-10-|
|--------------8--8-------|--------8--8--------8--8-|
|--------------8--8-------|--------8--8--------8--8-|
|
|-------------------------|-------------------------|
|-------------------------|-------------------------|
|-10-10-10-10-------10-10-|-10-10-------10-10-------|
|-10-10-10-10-------10-10-|-10-10-------10-10-------|
|--8--8--8--8--------8--8-|--8--8--------8--8-------|
|--8--8--8--8--------8--8-|--8--8--------8--8-------|


|-------------------------|-------------------------|
|-------------------------|-------------------------|
|-------------10-10-------|-------10-10-------10-10-|
|-------------10-10-------|-------10-10-------10-10-|
|--------------8--8-------|--------8--8--------8--8-|
|--------------8--8-------|--------8--8--------8--8-|
|
|-------------------------|-------------------------|
|-------------------------|-------------------------|
|-10-10-10-10-------10-10-|-10-10-------10-10-------|
|-10-10-10-10-------10-10-|-10-10-------10-10-------|
|--8--8--8--8--------8--8-|--8--8--------8--8-------|
|--8--8--8--8--------8--8-|--8--8--------8--8-------|


  G5
|-------------------|---------------------|
|-------------------|---------------------|
|---------10-10-----|-----10-10-----10-10-|
|---------10-10-----|-----10-10-----10-10-|
|---------10-10-----|-----10-10-----10-10-|
|-------------------|---------------------|
|
|-------------------|---------------------|
|-------------------|---------------------|
|-------------------|---------------------|
|-5-5-5-5-------5-5-|-5-5-------5-5-------|
|-5-5-5-5-------5-5-|-5-5-------5-5-------|
|-5-5-5-5-------5-5-|-5-5-------5-5-------|


                             N.C.
|-------------------|----------------||
|-------------------|----------------||
|---------10-10-----|-----10---x-----||
|---------10-10-----|-----10---x-----||
|---------10-10-----|-----10-x---x---||
|-------------------|--------x---x---||
|
|-------------------|----------------||
|-------------------|----------------||
|-------------------|----------x-----||
|-5-5-5-5-------5-5-|-5-5------x-----||
|-5-5-5-5-------5-5-|-5-5--------x---||
|-5-5-5-5-------5-5-|-5-5--------x---||
 Bridge
  Bbsus2      D5  Bbsus2        D5  Bbsus2D5
              PM|               PM|       PM|
|-----------------------|---------------------|
|-----------------------|---------------------|
|-10-10-10-10-----10-10-|-10-10-----10-10-----|
|-10-10-10-10-----10-10-|-10-10-----10-10-----|
|--8--8--8--8-0-0--8--8-|--8--8-0-0--8--8-0-0-|
|--8--8--8--8-0-0--8--8-|--8--8-0-0--8--8-0-0-|
|            PM|               PM|       PM|
|-----------------------|---------------------|
|-----------------------|---------------------|
|-10-10-10-10-----10-10-|-10-10-----10-10-----|
|-10-10-10-10-----10-10-|-10-10-----10-10-----|
|--8--8--8--8-0-0--8--8-|--8--8-0-0--8--8-0-0-|
|--8--8--8--8-0-0--8--8-|--8--8-0-0--8--8-0-0-|

  Bbsus2      D5  Bbsus2        D5  Bbsus2D5
              PM|               PM|       PM|
|-----------------------|---------------------|
|-----------------------|---------------------|
|-10-10-10-10-----10-10-|-10-10-----10-10-----|
|-10-10-10-10-----10-10-|-10-10-----10-10-----|
|--8--8--8--8-0-0--8--8-|--8--8-0-0--8--8-0-0-|
|--8--8--8--8-0-0--8--8-|--8--8-0-0--8--8-0-0-|
|
|             PM|               PM|       PM|
|-----------------------|---------------------|
|-----------------------|---------------------|
|-10-10-10-10-----10-10-|-10-10-----10-10-----|
|-10-10-10-10-----10-10-|-10-10-----10-10-----|
|--8--8--8--8-0-0--8--8-|--8--8-0-0--8--8-0-0-|
|--8--8--8--8-0-0--8--8-|--8--8-0-0--8--8-0-0-|

  G5          D5  G5            D5  G5    D5
              PM|               PM|       PM|
|-----------------------|---------------------|
|-----------------------|---------------------|
|-10-10-10-10-----10-10-|-10-10-----10-10-----|
|-10-10-10-10-----10-10-|-10-10-----10-10-----|
|-10-10-10-10-0-0-10-10-|-10-10-0-0-10-10-0-0-|
|-------------0-0-------|-------0-0-------0-0-|
|
|             PM|               PM|       PM|
|-----------------------|---------------------|
|-----------------------|---------------------|
|-----------------------|---------------------|
|--5--5--5--5------5--5-|--5--5------5--5-----|
|--5--5--5--5-0-0--5--5-|--5--5-0-0--5--5-0-0-|
|--5--5--5--5-0-0--5--5-|--5--5-0-0--5--5-0-0-|

  G5          D5  G5               D5
              PM|                    PM----|
|-----------------------|--------------------||
|-----------------------|--------------------||
|-10-10-10-10-----10-10-|-10-10-10-----------||
|-10-10-10-10-----10-10-|-10-10-10-0---------||
|-10-10-10-10-0-0-10-10-|-10-10-10-0-0-0-0-0-||
|-------------0-0-------|------------0-0-0-0-||
|
|             PM|                  PM------|
|-----------------------|--------------------||
|-----------------------|--------------------||
|-----------------------|--------------------||
|--5--5--5--5------5--5-|--5--5--5-----------||
|--5--5--5--5-0-0--5--5-|--5--5--5-0-0-0-0-0-||
|--5--5--5--5-0-0--5--5-|--5--5--5-0-0-0-0-0-||


 Outro 
  Bbsus2
|-------------------------|---------------------------|
|-------------------------|---------------------------|
|-10-------10-10-10-10----|-(10)-10-10-10-10----10-10-|
|-10-------10-10-10-10----|-(10)-10-10-10-10----10-10-|
|--8--------8--8--8--8----|--(8)--8--8--8--8-----8--8-|
|--8--------8--8--8--8----|--(8)--8--8--8--8-----8--8-|
|
|-------------------------|---------------------------|
|-------------------------|---------------------------|
|-10-10-10-10-10-10-10-10-|--10--10-10-10-10-10-10-10-|
|-10-10-10-10-10-10-10-10-|--10--10-10-10-10-10-10-10-|
|--8--8--8--8--8--8--8--8-|---8---8--8--8--8--8--8--8-|
|--8--8--8--8--8--8--8--8-|---8---8--8--8--8--8--8--8-|


|-------------------------|---------------------------|
|-------------------------|---------------------------|
|-10-------10-10-10-10----|-(10)-10-10-10-10----10-10-|
|-10-------10-10-10-10----|-(10)-10-10-10-10----10-10-|
|--8--------8--8--8--8----|--(8)--8--8--8--8-----8--8-|
|--8--------8--8--8--8----|--(8)--8--8--8--8-----8--8-|
|
|-------------------------|---------------------------|
|-------------------------|---------------------------|
|-10-10-10-10-10-10-10-10-|--10--10-10-10-10-10-10-10-|
|-10-10-10-10-10-10-10-10-|--10--10-10-10-10-10-10-10-|
|--8--8--8--8--8--8--8--8-|---8---8--8--8--8--8--8--8-|
|--8--8--8--8--8--8--8--8-|---8---8--8--8--8--8--8--8-|


  G5
|---------------------|------------------------|
|---------8----8------|------------8----8------|
|------10---10---10---|-(10)----10---10---10---|
|---10----------------|------10----------------|
|-8-------------------|------------------------|
|---------------------|------------------------|
|
|---------------------|------------------------|
|---------------------|------------------------|
|-7--7--7-7--7-7--7-7-|---7---7--7-7--7-7--7-7-|
|-5--5--5-5--5-5--5-5-|---5---5--5-5--5-5--5-5-|
|-5--5--5-5--5-5--5-5-|---5---5--5-5--5-5--5-5-|
|-5--5--5-5--5-5--5-5-|---5---5--5-5--5-5--5-5-|


|---------------------|------------------------|
|---------8----8------|------------8----8------|
|------10---10---10---|-(10)----10---10---10---|
|---10----------------|------10----------------|
|-8-------------------|------------------------|
|---------------------|------------------------|
|
|---------------------|------------------------|
|---------------------|------------------------|
|-7--7--7-7--7-7--7-7-|---7---7--7-7--7-7--7-7-|
|-5--5--5-5--5-5--5-5-|---5---5--5-5--5-5--5-5-|
|-5--5--5-5--5-5--5-5-|---5---5--5-5--5-5--5-5-|
|-5--5--5-5--5-5--5-5-|---5---5--5-5--5-5--5-5-|


  Bbsus2
|-------------------------|-------------------------|
|-------------------------|-------------------------|
|-10-10-10-10-10-10-10-10-|-10-10-10-10-10-10-10-10-|
|-10-10-10-10-10-10-10-10-|-10-10-10-10-10-10-10-10-|
|--8--8--8--8--8--8--8--8-|--8--8--8--8--8--8--8--8-|
|--8--8--8--8--8--8--8--8-|--8--8--8--8--8--8--8--8-|
|
|-------------------------|-------------------------|
|-------------------------|-------------------------|
|-10-10-10-10-10-10-10-10-|-10-10-10-10-10-10-10-10-|
|-10-10-10-10-10-10-10-10-|-10-10-10-10-10-10-10-10-|
|--8--8--8--8--8--8--8--8-|--8--8--8--8--8--8--8--8-|
|--8--8--8--8--8--8--8--8-|--8--8--8--8--8--8--8--8-|


|-------------------------|-------------------------|
|-------------------------|-------------------------|
|-10-10-10-10-10-10-10-10-|-10-10-10-10-10-10-10-10-|
|-10-10-10-10-10-10-10-10-|-10-10-10-10-10-10-10-10-|
|--8--8--8--8--8--8--8--8-|--8--8--8--8--8--8--8--8-|
|--8--8--8--8--8--8--8--8-|--8--8--8--8--8--8--8--8-|
|
|-------------------------|-------------------------|
|-------------------------|-------------------------|
|-10-10-10-10-10-10-10-10-|-10-10-10-10-10-10-10-10-|
|-10-10-10-10-10-10-10-10-|-10-10-10-10-10-10-10-10-|
|--8--8--8--8--8--8--8--8-|--8--8--8--8--8--8--8--8-|
|--8--8--8--8--8--8--8--8-|--8--8--8--8--8--8--8--8-|


  G5    Bbsus2G5
|----------------|----------*|
|----------------|----------*|
|-------10-10----|----------*|
|-------10-10----|----------*|
|--------8--8----|----------*|
|--------8--8----|----------*|
|
|----------------|----------*|
|----------------|----------*|
|----------------|----------*|
|-5--5--------5--|-5--------*|
|-5--5--------5--|-5--------*|
|-5--5--------5--|-5--------*|





                                TULIPS ARE BETTER


Gtr I (C G C F A D) - 'Untitled'
Gtr II (C G C F A D) - 'Untitled'
Gtr III (C G C F A D) - 'Untitled'
Gtr IV (C G C F A D) - 'Untitled'

 Intro
  Q=87
  (Cmaj7)                           (Asus2)
 4/4
  Gtr I
|---------------------------------|----------------------------------|
|---------------------------------|----------------------------------|
|---------4---------------4-------|---------4---------------4--------|
|---2---2---2---2---2---2---2---2-|---2---2---2---2---2---2---2---2--|
|-3---3-------3---3---3-------3---|-0---0-------0---0---0-------0----|
|---------------------------------|----------------------------------|


    (Cmaj7)
||--------------------------------------|
||o-------------------------------------|
||-------------4----------------4-------|
||-----2----2-----2---2---2---2---2---2-|
||o--3----3---------3---3---3-------3---|
||--------------------------------------|
|
|   Gtr II
||-------------0------------------------|
||o------12-----------------------------| 
||-----9----9-(9)-----------------------|
||--10----------------------------------|
||o-------------------------------------|
||--------------------------------------|


  (Asus2)
                                       3x
|--------------------------------------||
|-------------------------------------o||
|-----------4----------------4---------||
|---2----2-----2---2---2---2---2---2---||
|-0----0---------0---0---0-------0----o||
|--------------------------------------||
|
|                                      3x
|-----------0--------------------------||
|-----12------------------------------o||
|---9----9-(9)-------------------------||
|-7------------------------------------||
|-------------------------------------o||
|--------------------------------------||


    Fsus2                             Asus2
    Gtr III
||----------------------------------|-----------------------------------||
||o---------------------------------|----------------------------------o||
||----------------------------------|-----------------------------------||
||--5-5-5-5-5-5-5-5-5-5-5-5-5-5-5-5-|-9-9-9-9-9-9-9-9-9-9-9-9-9-9-9-9---||
||o-3-3-3-3-3-3-3-3-3-3-3-3-3-3-3-3-|-7-7-7-7-7-7-7-7-7-7-7-7-7-7-7-7--o||
||--3-3-3-3-3-3-3-3-3-3-3-3-3-3-3-3-|-7-7-7-7-7-7-7-7-7-7-7-7-7-7-7-7---||
|
|   Gtr IV
||----------------------------------|-----------------------------------||
||o---------------------------------|----------------------------------o||
||----------------------------------|-----------------------------------||
||--3-3-3-3-3-3-3-3-3-3-3-3-3-3-3-3-|-9-9-9-9-9-9-9-9-9-9-9-9-9-9-9-9---||
||o-3-3-3-3-3-3-3-3-3-3-3-3-3-3-3-3-|-7-7-7-7-7-7-7-7-7-7-7-7-7-7-7-7--o||
||--3-3-3-3-3-3-3-3-3-3-3-3-3-3-3-3-|-7-7-7-7-7-7-7-7-7-7-7-7-7-7-7-7---||


   Verse
    A5                                   A5D5      E5      F5
      PM|    PM|   PM|    PM|   PM         PM|   PM|   PM|   PM|   PM  PM
||-------------------------------------|----------------------------------|
||o------------------------------------|----------------------------------|
||-------------------------------------|----------------------------------|
||--9-----10-----9-----10-----9---10---|-3--------------------------------|
||o-7-7-7--7-7-7-7-7-7--7-7-7-7-7--7-7-|-3-----3-----3-----3-----3---3----|
||--7-7-7--7-7-7-7-7-7--7-7-7-7-7--7-7-|-3-3-3---3-3---3-3---3-3---3---3--|
|
|     PM|    PM|   PM|    PM|   PM       PM------------------------|
||-------------------------------------|----------------------------------|
||o------------------------------------|----------------------------------|
||-------------------------------------|----------------------------------|
||--7------7-----7------7-----7----7---|-----------------------------3-3--|
||o-7-7-7--7-7-7-7-7-7--7-7-7-7-7--7-7-|-7-0-0-0-0h2-2-2-2h3-3-3-3-3-3-3--|
||--7-7-7--7-7-7-7-7-7--7-7-7-7-7--7-7-|-7-0-0-0-0h2-2-2-2h3-3-3-3-3-3-3--|


  Asus2 Am     Asus2 Am     AsusAm     A5D5      E5      F5        Fsus2
    PM|    PM|   PM|    PM|   PM   PM
|------------------------------------|----------------------------------||
|------------------------------------|---------------------------------o||
|------------------------------------|----------------------------------||
|-9-----10-----9-----10-----9---10---|-7-0-0-0-0h2-2-2-2h3-3-3-3-3-5-5--||
|-7-7-7--7-7-7-7-7-7--7-7-7-7-7--7-7-|-7-0-0-0-0h2-2-2-2h3-3-3-3-3-3-3-o||
|-7-7-7--7-7-7-7-7-7--7-7-7-7-7--7-7-|-7-0-0-0-0h2-2-2-2h3-3-3-3-3-3-3--||
|
|   PM|    PM|   PM|    PM|   PM       PM------------------------|
|------------------------------------|----------------------------------||
|------------------------------------|---------------------------------o||
|------------------------------------|----------------------------------||
|-9-----10-----9-----10-----9---10---|-----------------------------5-5--||
|-7-7-7--7-7-7-7-7-7--7-7-7-7-7--7-7-|-7-0-0-0-0h2-2-2-2h3-3-3-3-3-3-3-o||
|-7-7-7--7-7-7-7-7-7--7-7-7-7-7--7-7-|-7-0-0-0-0h2-2-2-2h3-3-3-3-3-3-3--||


 Chorus
  F5  Fsus2                        A5  Asus2
|--------------------------------|--------------------------------|
|--------------------------------|--------------------------------|
|---x-5-(5)-5-5-5-5-5-5-----5-5/-|---x-9-(9)-9-10-10-9-----7----7-|
|---x-x-----------------------x--|---x-x-----x--x--x-x-----x----x-|
|---x-3-(3)-3-3-3-3-3-3-----3-3/-|---x-7-(7)-7--8--8-7-----5----5-|
|--------------------------------|--------------------------------|
|
| PM|                              PM|
|--------------------------------|--------------------------------|
|--------------------------------|--------------------------------|
|--------------------------------|--------------------------------|
|-----5-(5)-------------(5)---5/-|-----9-(9)-----------(9)---9\---|
|-3-3-3-(3)-------------(3)---3/-|-7-7-7-(7)-----------(7)---7\---|
|-3-3-3-(3)-------------(3)---3/-|-7-7-7-(7)-----------(7)---7\---|


  F5        Fsus2                        A5  Asus2
|--------------------------------------|----------------------------------|
|--------------------------------------|----------------------------------|
|-(7)-(7)s9-5-(5)-5-5-5-5-5-5-----5-5/-|---x-9-(9)-9-12-12-10-----9----7--|
|-----------x-----------------------x--|---x-x-----x--x--x--x-----x----x--|
|-(5)-(5)s7-3-(3)-3-3-3-3-3-3-----3-3/-|---x-7-(7)-7-10-10--8-----7----5--|
|--------------------------------------|----------------------------------|
|
|  PM-----|                              PM|
|--------------------------------------|----------------------------------|
|--------------------------------------|----------------------------------|
|--------------------------------------|----------------------------------|
|-----------5-(5)-------------(5)---5/-|-----9-(9)------------(9)---9\----|
|--3------3-3-(3)-------------(3)---3/-|-7-7-7-(7)------------(7)---7\----|
|--3------3-3-(3)-------------(3)---3/-|-7-7-7-(7)------------(7)---7\----|


  F5        Fsus2                        A5  Asus2
|--------------------------------------|---------------------------------|
|--------------------------------------|---------------------------------|
|-(7)-(7)s9-5-(5)-5-5-5-5-5-5-----5-5/-|---x-9-(9)-9-10-10-9-----7----7--|
|-----------x-----------------------x--|---x-x-----x--x--x-x-----x----x--|
|-(5)-(5)s7-3-(3)-3-3-3-3-3-3-----3-3/-|---x-7-(7)-7--8--8-7-----5----5--|
|--------------------------------------|---------------------------------|
|
|  PM-----|                              PM|
|--------------------------------------|---------------------------------|
|--------------------------------------|---------------------------------|
|--------------------------------------|---------------------------------|
|-----------5-(5)-------------(5)---5/-|-----9-(9)-----------(9)---9\----|
|--3------3-3-(3)-------------(3)---3/-|-7-7-7-(7)-----------(7)---7\----|
|--3------3-3-(3)-------------(3)---3/-|-7-7-7-(7)-----------(7)---7\----|


  F5        Fsus2                        A5  Asus2
|--------------------------------------|------------------------||
|--------------------------------------|------------------------||
|-(7)-(7)s9-5-(5)-5-5-5-5-5-5-----5-5/-|---x-9-(9)-9-12-12-10---||
|-----------x-----------------------x--|---x-x-----x--x--x--x---||
|-(5)-(5)s7-3-(3)-3-3-3-3-3-3-----3-3/-|---x-7-(7)-7-10-10--8---||
|--------------------------------------|------------------------||
|
|  PM-----|                              PM|
|--------------------------------------|------------------------||
|--------------------------------------|------------------------||
|--------------------------------------|------------------------||
|-----------5-(5)-------------(5)---5/-|-----9-(9)--------------||
|--3------3-3-(3)-------------(3)---3/-|-7-7-7-(7)--------------||
|--3------3-3-(3)-------------(3)---3/-|-7-7-7-(7)--------------||


   Bridge
    D5F#F5D5EbD5F5EbD5F#F5D5EbD5F5Eb5
   4/4
    Gtrs III, IV
    PM-------------------------------
||----------------------------------|
||o---------------------------------|
||----------------------------------|
||----------------------------------|
||o-0-4-3-0-1-0-3-1-0-4-3-0-1-0-3-1-|
||--0-4-3-0-1-0-3-1-0-4-3-0-1-0-3-1-|


  D5F#F5D5EbD5F5EbD5F#F5D5EbD5F5Eb5 D5EbF5Eb5
                                   2/4
 -------------------------------|
|---------------------------------|----------||
|---------------------------------|---------o||
|---------------------------------|----------||
|---------------------------------|----------||
|-0-4-3-0-1-0-3-1-0-4-3-0-1-0-3-1-|-0-1-3-1-o||
|-0-4-3-0-1-0-3-1-0-4-3-0-1-0-3-1-|-0-1-3-1--||

 
    D5
   4/4
    Gtr III
||--------------------------------------------|
||o-------------------------------------------|
||--------------------------------------------|
||--------------------------------------------|
||o-------------------------------------------|
||--0---4--3-0---1-0-3-1-0---4--3-0---1-0-3-1-|
|
|   Gtr IV
|   PM--|    PM----|     PM--|    PM----|
||--------------------------------------------|
||o-------------------------------------------|
||--------------------------------------------|
||--------------------------------------------|
||o-0-0-0----0-0-0-0-----0-0-0----0-0-0-0-----|
||--0-0-0----0-0-0-0-----0-0-0----0-0-0-0-----|


                                              D5EbF5Eb5
                                             2/4
|-------------------------------------------|-----------||
|-------------------------------------------|----------o||
|-------------------------------------------|-----------||
|-------------------------------------------|-----------||
|-------------------------------------------|-0-1-3-1--o||
|-0---4--3-0---1-0-3-1-0---4--3-0---1-0-3-1-|-0-1-3-1---||
|
| PM--|    PM----|     PM--|    PM----|
|-------------------------------------------|-----------||
|-------------------------------------------|----------o||
|-------------------------------------------|-----------||
|-------------------------------------------|-----------||
|-0-0-0----0-0-0-0-----0-0-0----0-0-0-0-----|-0-1-3-1--o||
|-0-0-0----0-0-0-0-----0-0-0----0-0-0-0-----|-0-1-3-1---||


  H=H
  D5                          (Dm)
 4/4
|---------------------------|-----------------------------------------------||
|---------------------------|-----------------------------------------------||
|-9-9-9-9-9-9-(9)-9-9-9-9-9-|-10--10-10-10-10-10-10-10-10-10-10-10-10-10-10-||
|-x-x-x-x-x-x-----x-x-x-x-x-|--x---x--x--x--x--x--x--x--x--x--x--x--x--x--x-||
|-7-7-7-7-7-7-(7)-7-7-7-7-7-|--8---8--8--8--8--8--8--8--8--8--8--8--8--8--8-||
|-0-0-0-0-0-0-(0)-0-0-0-0-0-|-----------------------------------------------||
|
|---------------------------|-----------------------------------------------||
|---------------------------|-----------------------------------------------||
|---------------------------|-----------------------------------------------||
|-0-------------------------|-(0)-------------------------------------------||
|-0-------------------------|-(0)-------------------------------------------||
|-0-------------------------|-(0)-------------------------------------------||


 Breakdown Verse
  Faster Q=93
  D5
  Gtr III
|-------------------------|----------------------------|
|-------------------------|----------------------------|
|-------------------------|-------7-7-7-9-9-9-10-10-10-|
|-0-0-0-0-0-0-0-0-0-0-0-0-|-0-0-0-x-x-x-x-x-x--x--x--x-|
|-0-0-0-0-0-0-0-0-0-0-0-0-|-0-0-0-5-5-5-7-7-7--8--8--8-|
|-0-0-0-0-0-0-0-0-0-0-0-0-|-0-0-0----------------------|
|
| Gtr IV
|-------------------------|----------------------------|
|-------------------------|----------------------------|
|-------------------------|----------------------------|
|-0-0-0-0-0-0-0-0-0-0-0-0-|-0-0-0-0-0-0-0-0-0--0--0--0-|
|-0-0-0-0-0-0-0-0-0-0-0-0-|-0-0-0-0-0-0-0-0-0--0--0--0-|
|-0-0-0-0-0-0-0-0-0-0-0-0-|-0-0-0-0-0-0-0-0-0--0--0--0-|


  Bb5                                   F5
|-------------------------------------|-------------------------|
|-------------------------------------|-------------------------|
|-10-10-10-10-10-10-10-10-10-10-10-10-|-5-5-5-5-5-5-5-5-5-5-5-5-|
|--x--x--x--x--x--x--x--x--x--x--x--x-|-x-x-x-x-x-x-x-x-x-x-x-x-|
|--8--8--8--8--8--8--8--8--8--8--8--8-|-3-3-3-3-3-3-3-3-3-3-3-3-|
|-------------------------------------|-------------------------|
|
|-------------------------------------|-------------------------|
|-------------------------------------|-------------------------|
|-------------------------------------|-------------------------|
|--8--8--8--8--8--8--8--8--8--8--8--8-|-3-3-3-3-3-3-3-3-3-3-3-3-|
|--8--8--8--8--8--8--8--8--8--8--8--8-|-3-3-3-3-3-3-3-3-3-3-3-3-|
|--8--8--8--8--8--8--8--8--8--8--8--8-|-3-3-3-3-3-3-3-3-3-3-3-3-|


  D5
|-------------------------|---------------------------|
|-------------------------|---------------------------|
|-------------------------|-------7-7-7-9-9-9-10-10-5-|
|-0-0-0-0-0-0-0-0-0-0-0-0-|-0-0-0-x-x-x-x-x-x--x--x-x-|
|-0-0-0-0-0-0-0-0-0-0-0-0-|-0-0-0-5-5-5-7-7-7--8--8-3-|
|-0-0-0-0-0-0-0-0-0-0-0-0-|-0-0-0---------------------|
|
|-------------------------|---------------------------|
|-------------------------|---------------------------|
|-------------------------|---------------------------|
|-0-0-0-0-0-0-0-0-0-0-0-0-|-0-0-0-0-0-0-0-0-0--0--0-0-|
|-0-0-0-0-0-0-0-0-0-0-0-0-|-0-0-0-0-0-0-0-0-0--0--0-0-|
|-0-0-0-0-0-0-0-0-0-0-0-0-|-0-0-0-0-0-0-0-0-0--0--0-0-|


  Bb5                       F5              C/E
                              PM--|   PM--|   PM--|   PM--|
|-------------------------|---------------------------------|
|-------------------------|---------------------------------|
|-5-5-5-5-5-5-5-5-5-5-5-5-|---------------------------------|
|-x-x-x-x-x-x-x-x-x-x-x-x-|-3-------3-------2-------2-------|
|-3-3-3-3-3-3-3-3-3-3-3-3-|-3-3-3-3-3-3-3-3-3-3-3-3-3-3-3-3-|
|-------------------------|-3-3-3-3-3-3-3-3-2-2-2-2-2-2-2-2-|
| 
|                             PM--|   PM--|   PM--|   PM--|
|-------------------------|---------------------------------|
|-------------------------|---------------------------------|
|-------------------------|---------------------------------|
|-8-8-8-8-8-8-8-8-8-8-8-8-|-3-------3-------2-------2-------|
|-8-8-8-8-8-8-8-8-8-8-8-8-|-3-3-3-3-3-3-3-3-3-3-3-3-3-3-3-3-|
|-8-8-8-8-8-8-8-8-8-8-8-8-|-3-3-3-3-3-3-3-3-2-2-2-2-2-2-2-2-|


  a Tempo Q=87
  D5                      F5         Bb5
  Gtrs III, IV
|----------|------------|----------|---------------------||
|----------|------------|----------|---------------------||
|----------|------------|----------|---------------------||
|-0--------|-(0)--------|-3--------|-8-------------------||
|-0--------|-(0)--------|-3--------|-8----x-x-x-x-x-x-8--||
|-0--------|-(0)--------|-3--------|-8----x-x-x-x-x-x-8--||


 Break
  D5
|----------|------------|------------|--------|
|----------|------------|------------|--------|
|----------|------------|------------|--------|
|-0--------|-(0)--------|-(0)--------|-(0)----|
|-0--------|-(0)--------|-(0)--------|-(0)----|
|-0--------|-(0)--------|-(0)--------|-(0)----|


  F5
  Gtr III
  PM---------------------------------------
|-----------------------------------------|
|-----------------------------------------|
|-----------------------------------------|
|-----------------------------------------|
|-3-3-3-3-3-3-3-3--3--3-3--3----3---3-3-3-|
|-3-3-3-3-3-3-3-3--3--3-3--3----3---3-3-3-|
|
| Gtr IV
|-----------------------------------------|
|-----------------<5>---------------------|
|-------------------------<5>-(<5>)-------|
|-----------------------------------------|
|-----------------------------------------|
|-----------------------------------------|


  A5
 -------------------------------------------|
|---------------------------------------------|
|---------------------------------------------|
|---------------------------------------------|
|---------------------------------------------|
|---7---7-7-7-7-7-7-7--7--7-7--7----7---7-7-7-|
|---7---7-7-7-7-7-7-7--7--7-7--7----7---7-7-7-|
|
|---------------------------------------------|
|---------------------<7>---------------------|
|-(<5>)-----------------------<7>-(<7>)-------|
|---------------------------------------------|
|---------------------------------------------|
|---------------------------------------------|


    PM-----------------------------------------
|---------------------------------------------|
|---------------------------------------------|
|---------------------------------------------|
|---------------------------------------------|
|---3---3-3-3-3-3-3-3--3--3-3--3----3---3-3-3-|
|---3---3-3-3-3-3-3-3--3--3-3--3----3---3-3-3-|
|
|---------------------------------------------|
|---------------------<5>---------------------|
|-(<7>)-----------------------<5>-(<5>)-------|
|---------------------------------------------|
|---------------------------------------------|
|---------------------------------------------|


 -------------------------------------------|
|---------------------------------------------|
|---------------------------------------------|
|---------------------------------------------|
|---------------------------------------------|
|---7---7-7-7-7-7-7-7--7--7-7--7----7---7-7-7-|
|---7---7-7-7-7-7-7-7--7--7-7--7----7---7-7-7-|
|
|---------------------------------------------|
|---------------------<7>---------------------|
|-(<5>)-----------------------<7>-(<7>)-------|
|---------------------------------------------|
|---------------------------------------------|
|---------------------------------------------|


 Outro
  F5                                    A5
|-------------------------------------|-------------------------------------|
|-------------------------------------|-------------------------------------|
|-------------------------------------|-------------------------------------|
|-3-3-3-3--3--3-3-3--3--3-3-3-3-3-3-3-|-7-7-7-7--7--7-7-7--7--7-7-7-7-7-7-7-|
|-3-3-3-3--3--3-3-3--3--3-3-3-3-3-3-3-|-7-7-7-7--7--7-7-7--7--7-7-7-7-7-7-7-|
|-3-3-3-3--3--3-3-3--3--3-3-3-3-3-3-3-|-7-7-7-7--7--7-7-7--7--7-7-7-7-7-7-7-|
|
|-------------------------------------|-------------------------------------|
|-------------------------------------|-------------------------------------|
|-------5-(5)-----------------5-------|-------4-(4)-----------------4-------|
|---------------5---(5)-----------5---|---------------5---(5)-----------5---|
|-3---------------------3-------------|-0---------------------0-------------|
|-------------------------------------|-------------------------------------|


  F5                                    D5
|-------------------------------------|-------------------------------------|
|-------------------------------------|-------------------------------------|
|-------------------------------------|-------------------------------------|
|-3-3-3-3--3--3-3-3--3--3-3-3-3-3-3-3-|-0-0-0-0--0--0-0-0--0--0-0-0-0-0-0-0-|
|-3-3-3-3--3--3-3-3--3--3-3-3-3-3-3-3-|-0-0-0-0--0--0-0-0--0--0-0-0-0-0-0-0-|
|-3-3-3-3--3--3-3-3--3--3-3-3-3-3-3-3-|-0-0-0-0--0--0-0-0--0--0-0-0-0-0-0-0-|
|
|-------------------------------------|-------------------------------------|
|-------5-(5)-----------------5-------|-------5-(5)-----------------6-------|
|---------------5---(5)-----------5---|---------------5---(5)-----------5---|
|-3---------------------3-------------|-0-----------------------0-----------|
|-------------------------------------|-------------------------------------|
|-------------------------------------|-------------------------------------|


  (C5)                                  (A7sus2)
|-------------------------------------|-------------------------------------|
|-------------------------------------|-------------------------------------|
|-5-5-5-5--5--5-5-5--5--5-5-5-5s7-7-7-|-7s9-9-9--9--9-9-9--9--9-9-9-9-9-9-9-|
|-x-x-x-x--x--x-x-x--x--x-x-x-x---x-x-|-x---x-x--x--x-x-x--x--x-x-x-x-x-x-x-|
|-3-3-3-3--3--3-3-3--3--3-3-3-3s5-5-5-|-5s7-7-7--7--7-7-7--7--7-7-7-7-7-7-7-|
|-------------------------------------|-------------------------------------|
|
|-------------------------------------|-------------------------------------|
|-------------------------------------|-------------------------------------|
|-------5-(5)-----------------5-------|-------4-(4)-----------------4-------|
|---------------5---(5)-----------5---|---------------5---(5)-----------5---|
|-3---------------------3-------------|-0---------------------0-------------|
|-------------------------------------|-------------------------------------|


  (Fmaj7)                               (D7sus2)
|-------------------------------------|----------------------------------------|
|-------------------------------------|----------------------------------------|
|-5-5-5-5--5--5-5-5--5--5-5-5-5s7-7-7-|-5s7-7-7--7--7-7-7--7--7-7-7-7-7-12-12s=|
|-x-x-x-x--x--x-x-x--x--x-x-x-x---x-x-|-x---x-x--x--x-x-x--x--x-x-x-x-x--x--x--|
|-3-3-3-3--3--3-3-3--3--3-3-3-3s5-5-5-|-3s5-5-5--5--5-5-5--5--5-5-5-5-5-10-10s=|
|-------------------------------------|----------------------------------------|
|
|-------------------------------------|----------------------------------------|
|-------5-(5)-----------------5-------|-------5-(5)-----------------6----------|
|---------------5---(5)-----------5---|---------------5---(5)------------5-----|
|-3---------------------3-------------|-0-----------------------0--------------|
|-------------------------------------|----------------------------------------|
|-------------------------------------|----------------------------------------|


  (C5)
|--------------------------------------------|
|--------------------------------------------|
|-9-9-9-9--9--9-9-9--9s=10-10-10-10-10-10-10-|
|---x-x-x--x--x-x-x--x------x--x--x--x--x--x-|
|-7-7-7-7--7--7-7-7--7s==8--8--8--8--8--8--8-|
|--------------------------------------------|
|
|--------------------------------------------|
|--------------------------------------------|
|-------5-(5)---------------------5----------|
|---------------5---(5)-----------------5----|
|-3----------------------3-------------------|
|--------------------------------------------|


  (A7sus2)
|---------------------------------------|
|---------------------------------------|
|-10s9-9s7--7s=5-5-5--5--5-5-5-5-5-5-12-|
|--x---x----x----x-x--x--x-x-x-x-x-x--x-|
|--8s7-7s5--5s=3-3-3--3--3-3-3-3-3-3-10-|
|---------------------------------------|
|
|---------------------------------------|
|---------------------------------------|
|--------4-(4)-----------------4--------|
|----------------5---(5)-----------5----|
|--0---------------------0--------------|
|---------------------------------------|


  (Fmaj7)
|---------------------------------------------|
|---------------------------------------------|
|-12s9-9-9--9--9-9-9--9s=10-10-10-10s12-12-12-|
|--x---x-x--x--x-x-x--x------x--x--x-----x--x-|
|-10s7-7-7--7--7-7-7--7s==8--8--8--8s10-10-10-|
|---------------------------------------------|
|
|---------------------------------------------|
|--------5-(5)---------------------5----------|
|----------------5---(5)-----------------5----|
|--3----------------------3-------------------|
|---------------------------------------------|
|---------------------------------------------|


  (D7sus2)
|--------------------------------------------|
|--------------------------------------------|
|-12s14-12-12-12--12-12-10-10s=9-9s7-7s5-5-5-|
|--x-----x--x--x---x--x--x--x----x---x---x-x-|
|-10s12-10-10-10--10-10--8--8s=7-7s5-5s3-3-3-|
|--------------------------------------------|
|
|--------------------------------------------|
|-----------5-(5)--------------------6-------|
|---------------------5----(5)-----------5---|
|--0-----------------------------0-----------|
|--------------------------------------------|
|--------------------------------------------|


  F5     G5   A5
|-----------|------*|
|-----------|------*|
|-5------7--|-9----*|
|-x------x--|-x----*|
|-3------5--|-7----*|
|-----------|------*|
|
|-----------|------*|
|-----------|------*|
|-----------|------*|
|-3------5--|-7----*|
|-3------5--|-7----*|
|-3------5--|-7----*|


                               A VAMPIRE'S LAMENT

Gtr I (C G C F A D) - 'Untitled'
Gtr II (C G C F A D) - 'Untitled'

 Intro
  Fast Rock Q=183
    D5                              N.C.
 4/4
  Gtr I
    <
                PM--------------|   TP TP TP TP
|----------|----------------------|-------------|
|----------|----------------------|-------------|
|----------|----------------------|-------------|
|---0------|-0--------------------|-------------|
|---0------|-0--0-0-0-0-0-0-0-0-0-|-5--6--8--6--|
|---0------|-0--0-0-0-0-0-0-0-0-0-|-------------|
|
| Gtr II
|   <
|                                   TP TP TP TP
|----------|----------------------|-------------|
|----------|----------------------|-------------|
|----------|----------------------|-------------|
|---0------|-0--------------------|-7--8--7--5--|
|---0------|-0--------------------|-------------|
|---0------|-0--------------------|-------------|


  D5    N.C.
                 6/4
|---------------|--------------------||
|---------------|--------------------||
|---------------|--------------------||
|-0--0--10--8-7-|--8-7-5-7-5-3-5-3-2-||
|-0--0----------|--------------------||
|-0--0----------|--------------------||
|
|---------------|--------------------||
|---------------|--------------------||
|---------------|--------------------||
|-0--0----------|--------------------||
|-0--0--12-10-8-|-10-8-7-8-7-5-7-5-3-||
|-0--0----------|--------------------||


   Verse
    D5                     N.C.
   4/4
       PM--------------|   TP TP TP TP
||-----------------------|-------------|
||o----------------------|-------------|
||-----------------------|-------------|
||--0--------------------|-------------|
||o-0--0-0-0-0-0-0-0-0-0-|-5--6--8--6--|
||--0--0-0-0-0-0-0-0-0-0-|-------------|
|
|      PM--------------|   TP TP TP TP
||-----------------------|-------------|
||o----------------------|-------------|
||-----------------------|-------------|
||--0--------------------|-7--8--7--5--|
||o-0--0-0-0-0-0-0-0-0-0-|-------------|
||--0--0-0-0-0-0-0-0-0-0-|-------------|


  D5                     N.C.
     PM--------------|    TP  TP  TP  TP
|----------------------|-----------------|
|----------------------|-----------------|
|----------------------|-----------------|
|-0--------------------|-----------------|
|-0--0-0-0-0-0-0-0-0-0-|-10--12--13--12--|
|-0--0-0-0-0-0-0-0-0-0-|-----------------|
|
|    PM--------------|    TP  TP  TP  TP
|----------------------|-----------------|
|----------------------|-----------------|
|----------------------|-----------------|
|-0--------------------|--8---7----------|
|-0--0-0-0-0-0-0-0-0-0-|----------8---5--|
|-0--0-0-0-0-0-0-0-0-0-|-----------------|


  D5                     N.C.
     PM--------------|   TP TP TP TP
|----------------------|-------------|
|----------------------|-------------|
|----------------------|-------------|
|-0--------------------|-------------|
|-0--0-0-0-0-0-0-0-0-0-|-5--6--8--6--|
|-0--0-0-0-0-0-0-0-0-0-|-------------|
|
|    PM--------------|   TP TP TP TP
|----------------------|-------------|
|----------------------|-------------|
|----------------------|-------------|
|-0--------------------|-7--8--7--5--|
|-0--0-0-0-0-0-0-0-0-0-|-------------|
|-0--0-0-0-0-0-0-0-0-0-|-------------|


 1.
  D5                     N.C.
     PM--------------|    TP  TP  TP  TP
|----------------------|------------------||
|----------------------|-----------------o||
|----------------------|------------------||
|-0--------------------|------------------||
|-0--0-0-0-0-0-0-0-0-0-|-10--12--13--12--o||
|-0--0-0-0-0-0-0-0-0-0-|------------------||
|
|    PM--------------|    TP  TP  TP  TP
|----------------------|------------------||
|----------------------|-----------------o||
|----------------------|------------------||
|-0--------------------|--8--10--13--12---||
|-0--0-0-0-0-0-0-0-0-0-|-----------------o||
|-0--0-0-0-0-0-0-0-0-0-|------------------||


  2.
  D5            N.C.
|-------------|-----------------||
|-------------|-----------------||
|-------------|-----------------||
|-0--0--0--0--|-----------------||
|-0--0--0--0--|-10--12--13--12--||
|-0--0--0--0--|-----------------||
|
|-------------|-----------------||
|-------------|-----------------||
|-------------|-----------------||
|-0--0--0--0--|--8--10--13--12--||
|-0--0--0--0--|-----------------||
|-0--0--0--0--|-----------------||


    D5                     N.C.
       PM--------------|
||-----------------------|-------------|
||o----------------------|-------------|
||-----------------------|-------------|
||--0--------------------|-------------|
||o-0--0-0-0-0-0-0-0-0-0-|-5--6--8--6--|
||--0--0-0-0-0-0-0-0-0-0-|-------------|
|
|      PM--------------|
||-----------------------|-------------|
||o----------------------|-------------|
||-----------------------|-------------|
||--0--------------------|-7--8--7--5--|
||o-0--0-0-0-0-0-0-0-0-0-|-------------|
||--0--0-0-0-0-0-0-0-0-0-|-------------|


  D5                     N.C.
     PM--------------|
|----------------------|-------------------|
|----------------------|-------------------|
|----------------------|-------------------|
|-0--------------------|-------------------|
|-0--0-0-0-0-0-0-0-0-0-|-10--12--13--12----|
|-0--0-0-0-0-0-0-0-0-0-|-------------------|
|
|    PM--------------|
|----------------------|-------------------|
|----------------------|-------------------|
|----------------------|-------------------|
|-0--------------------|--8---7------------|
|-0--0-0-0-0-0-0-0-0-0-|----------8---5----|
|-0--0-0-0-0-0-0-0-0-0-|-------------------|


  D5                     N.C.
     PM--------------|
|----------------------|-------------|
|----------------------|-------------|
|----------------------|-------------|
|-0--------------------|-------------|
|-0--0-0-0-0-0-0-0-0-0-|-5--6--8--6--|
|-0--0-0-0-0-0-0-0-0-0-|-------------|
|
|    PM--------------|
|----------------------|-------------|
|----------------------|-------------|
|----------------------|-------------|
|-0--------------------|-7--8--7--5--|
|-0--0-0-0-0-0-0-0-0-0-|-------------|
|-0--0-0-0-0-0-0-0-0-0-|-------------|


  D5                     N.C.
     PM--------------|
|----------------------|------------------||
|----------------------|-----------------o||
|----------------------|------------------||
|-0--------------------|------------------||
|-0--0-0-0-0-0-0-0-0-0-|-10--12--13--12--o||
|-0--0-0-0-0-0-0-0-0-0-|------------------||
|
|    PM--------------|
|----------------------|------------------||
|----------------------|-----------------o||
|----------------------|------------------||
|-0--------------------|--8--10--13--12---||
|-0--0-0-0-0-0-0-0-0-0-|-----------------o||
|-0--0-0-0-0-0-0-0-0-0-|------------------||


 Interlude
  N.CD5        N.CD5        N.C.D5        N.C.D5
 3/4
     PM----|      PM----|       PM----|       PM----|
|------------|------------|-------------|-------------|
|------------|------------|-------------|-------------|
|-7----------|-9----------|-12----------|-10----------|
|------------|------------|-------------|-------------|
|-5--0-0-0-0-|-7--0-0-0-0-|-10--0-0-0-0-|--8--0-0-0-0-|
|----0-0-0-0-|----0-0-0-0-|-----0-0-0-0-|-----0-0-0-0-|
|
|    PM----|      PM----|       PM----|       PM----|
|------------|------------|-------------|-------------|
|------------|------------|-------------|-------------|
|-7----------|-5----------|--9----------|--7----------|
|------------|------------|-------------|-------------|
|-5--0-0-0-0-|-3--0-0-0-0-|--7--0-0-0-0-|--5--0-0-0-0-|
|----0-0-0-0-|----0-0-0-0-|-----0-0-0-0-|-----0-0-0-0-|


  N.CD5          N.CD5        N.C.D5  N.C.        D5
     PM------|      PM----|       PM|             PM----|
|--------------|------------|---------------|--------------|
|--------------|------------|---------------|--------------|
|-7------------|-9----------|-12------12s14-|-10-----------|
|--------------|------------|---------------|--------------|
|-5--0-0-0-0-0-|-7--0-0-0-0-|-10--0-0-10s12-|--8--0-0-0-0--|
|----0-0-0-0-0-|----0-0-0-0-|-----0-0-------|-----0-0-0-0--|
|
|    PM------|      PM----|       PM|             PM----|
|--------------|------------|---------------|--------------|
|--------------|------------|---------------|--------------|
|-7------------|-5----------|--9-------9s10-|--7-----------|
|--------------|------------|---------------|--------------|
|-5--0-0-0-0-0-|-3--0-0-0-0-|--7--0-0--7s=8-|--5--0-0-0-0--|
|----0-0-0-0-0-|----0-0-0-0-|-----0-0-------|-----0-0-0-0--|


  N.CD5          N.CD5        N.C.D5        N.C.D5
     PM------|      PM----|       PM----|       PM----|
|--------------|------------|-------------|--------------|
|--------------|------------|-------------|--------------|
|-7------------|-9----------|-12----------|-10-----------|
|--------------|------------|-------------|--------------|
|-5--0-0-0-0-0-|-7--0-0-0-0-|-10--0-0-0-0-|--8--0-0-0-0--|
|----0-0-0-0-0-|----0-0-0-0-|-----0-0-0-0-|-----0-0-0-0--|
|
|    PM------|      PM----|       PM----|       PM----|
|--------------|------------|-------------|--------------|
|--------------|------------|-------------|--------------|
|-7------------|-5----------|--9----------|--7-----------|
|--------------|------------|-------------|--------------|
|-5--0-0-0-0-0-|-3--0-0-0-0-|--7--0-0-0-0-|--5--0-0-0-0--|
|----0-0-0-0-0-|----0-0-0-0-|-----0-0-0-0-|-----0-0-0-0--|


  N.CD5          N.CD5        N.C.
                             4/4
     PM------|      PM----|
|--------------|------------|---------------------||
|--------------|------------|---------------------||
|-7------------|-9----------|-12-12-12-12-12s14---||
|--------------|------------|---------------------||
|-5--0-0-0-0-0-|-7--0-0-0-0-|-10-10-10-10-10s12---||
|----0-0-0-0-0-|----0-0-0-0-|---------------------||
|
|    PM------|      PM----|
|--------------|------------|---------------------||
|--------------|------------|---------------------||
|-7------------|-5----------|--9--9--9--9--9s10---||
|--------------|------------|---------------------||
|-5--0-0-0-0-0-|-3--0-0-0-0-|--7--7--7--7--7s=8---||
|----0-0-0-0-0-|----0-0-0-0-|---------------------||


   Chorus
    D5
||------------------|-----------------------|
||o-----------------|-----------------------|
||--7-7-7-----7-7-7-|-(7)-------7--7--7-----|
||--7-7-7-----7-7-7-|-(7)-------7--7--7-----|
||o-5-5-5-----5-5-5-|-(5)-------5--5--5-----|
||------------------|-----------------------|
|
|   PM|   PM  PM|      PM   PM|
||------------------|-----------------------|
||o-----------------|-----------------------|
||------------------|-----------------------|
||------3---3-----5-|-----3-----3h=5--3-(3)-|
||o-5-5-5-5-5-5-5-5-|--5--5-5-5-5-(5)-5-(5)-|
||------------------|-----------------------|


  C5
|-----------------|-------------------------||
|-----------------|------------------------o||
|-5-5-5-----5-5-5-|-(5)-------5--5--5-------||
|-5-5-5-----5-5-5-|-(5)-------5--5--5-------||
|-3-3-3-----3-3-3-|-(3)-------3--3--3------o||
|-----------------|-------------------------||
|
| PM|   PM  PM|      PM   PM|
|-----------------|-------------------------||
|-----------------|------------------------o||
|-----------------|-------------------------||
|-----2---2-----3-|-----2-----2h=3--2-(2)---||
|-3-3-3-3-3-3-3-3-|--3--3-3-3-3-(3)-3-(3)--o||
|-----------------|-------------------------||


    A5
||--------------------------|------------------------------|
||o-------------------------|------------------------------|
||--------------------------|------------------------------|
||---7--7--7--------7--7--7-|-(7)-----------7---7---7------|
||o--7--7--7--------7--7--7-|-(7)-----------7---7---7------|
||---7--7--7--------7--7--7-|-(7)-----------7---7---7------|
|
|    PM|      PM    PM|        PM     PM|
||--------------------------|------------------------------|
||o-------------------------|------------------------------|
||--------------------------|------------------------------|
||--------10----10-------12-|-----10-------10h=12--10-(10)-|
||o-12-12-12-12-12-12-12-12-|-12--12-12-12-12-(12)-12-(12)-|
||--------------------------|------------------------------|


 1.
  G5
|-------------------------|--------------------------------||
|-------------------------|-------------------------------o||
|-------------------------|--------------------------------||
|--5--5--5--------5--5--5-|-(5)-----------5---5---5--------||
|--5--5--5--------5--5--5-|-(5)-----------5---5---5-------o||
|--5--5--5--------5--5--5-|-(5)-----------5---5---5--------||
|
|  PM|      PM    PM|        PM     PM|
|-------------------------|--------------------------------||
|-------------------------|-------------------------------o||
|-------------------------|--------------------------------||
|--------9-----9-------10-|------9--------9h=10---9--(9)---||
|-10-10-10-10-10-10-10-10-|-10--10-10-10-10-(10)-10-(10)--o||
|-------------------------|--------------------------------||


  2.
  G5
|-------------------------|---------------------------||
|-------------------------|---------------------------||
|-------------------------|---------------------------||
|--5--5--5--------5--5--5-|-(5)----------5----5----5--||
|--5--5--5--------5--5--5-|-(5)----------5----5----5--||
|--5--5--5--------5--5--5-|-(5)----------5----5----5--||
|
|  PM|      PM    PM|        PM     PM|
|-------------------------|---------------------------||
|-------------------------|---------------------------||
|-------------------------|---------------------------||
|--------9-----9-------10-|------9-------9h10p==9-----||
|-10-10-10-10-10-10-10-10-|-10--10-10-10----------10--||
|-------------------------|---------------------------||


   Bridge
    F                               G
                                                                     3x
||----------3--|-(3)--------------|------------5--|--(5)-------------||
||o------------|------6--5h6p5----|---------------|-------8---------o||
||------5------|---------------5--|-------7-------|-----------7------||
||--3----------|------------------|--5------------|--------------5---||
||o------------|------------------|---------------|-----------------o||
||-------------|------------------|---------------|------------------||
|
|                                                                    3x
||-------------|------------------|---------------|------------------||
||o------------|------------------|---------------|-----------------o||
||-------------|------------------|---------------|------------------||
||--7---7---7--|-(7)-----7--------|--9----9----9--|--(9)------9------||
||o-8---8---8--|-(8)-----8--------|-10---10---10--|-(10)-----10--7--o||
||-------------|------------------|---------------|------------------||


  F                               G
|---------3--|-(3)--------------|------------5--|--(5)------------|
|------------|------6--5h6p5----|---------------|-------8---------|
|-----5------|---------------5--|-------7-------|-----------7-----|
|-3----------|------------------|--5------------|--------------5--|
|------------|------------------|---------------|-----------------|
|------------|------------------|---------------|-----------------|
|
|------------|------------------|---------------|-----------------|
|------------|------------------|---------------|-----------------|
|------------|------------------|---------------|-----------------|
|-7---7---7--|-(7)-----7--------|--9----9----9--|--(9)------9-----|
|-8---8---8--|-(8)-----8--------|-10---10---10--|-(10)-----10-----|
|------------|------------------|---------------|-----------------|


  F                          Fm
|-^-3--------|--(3)--------|------------|---------||
|-^-6--------|--(6)--------|-^-6--------|--(6)----||
|-^-5--------|--(5)--------|-^-5--------|--(5)----||
|-^-3--------|--(3)--------|-^-6--------|--(6)----||
|------------|-------------|------------|---------||
|------------|-------------|------------|---------||
|
|------------|-------------|------------|---------||
|-^10--------|-(10)--------|-^-9--------|--(9)----||
|-^10--------|-(10)--------|-^10--------|-(10)----||
|-^10--------|-(10)--------|-^10--------|-(10)----||
|-^-8--------|--(8)--------|-^-8--------|--(8)----||
|------------|-------------|------------|---------||


 Break
  Slowly Q.=64
  D5
 6/8
  Gtrs I, II
|--------|----------|----------|--------|
|--------|----------|----------|--------|
|--------|----------|----------|--------|
|-0------|-(0)------|-(0)------|-(0)----|
|-0------|-(0)------|-(0)------|-(0)----|
|-0------|-(0)------|-(0)------|-(0)----|


|----------|----------|----------|--------||
|----------|----------|----------|--------||
|----------|----------|----------|--------||
|----------|----------|----------|--------||
|-(0)------|-(0)------|----------|--------||
|-(0)------|-(0)------|-(0)------|-(0)----||


   Bridge
    N.C.
    Gtr II
||------------------------------|-----------------------------|
||o-----------------------------|-----------------------------|
||------------------------------|-----------------------------|
||------------------------------|-----------------------------|
||o-5-5-5-8p5-8p5-5-5-5-8p5-8p5-|-3-3-3-7p3-7p3-3-3-3-7p3-7p3-|
||------------------------------|-----------------------------|


  N.C.
|-------------------------------------------|
|-------------------------------------------|
|-------------------------------------------|
|-------------------------------------------|
|-10-10-10-13p10-13p10-10-10-10-13p10-13p10-|
|-------------------------------------------|


|----------------------------------||
|---------------------------------o||
|----------------------------------||
|----------------------------------||
|-8-8-8-12p8-12p8-8-8-8-12p8-12p8-o||
|----------------------------------||


    N.C.
    Gtr I
||------------------------------|-----------------------------|
||o-----------------------------|-----------------------------|
||------------------------------|-----------------------------|
||--3-3-3-7p3-7p3-3-3-3-7p3-7p3-|-2-2-2-5p2-5p2-2-2-2-5p2-5p2-|
||o-----------------------------|-----------------------------|
||------------------------------|-----------------------------|
|
|   Gtr II
||------------------------------|-----------------------------|
||o-----------------------------|-----------------------------|
||------------------------------|-----------------------------|
||------------------------------|-----------------------------|
||o-5-5-5-8p5-8p5-5-5-5-8p5-8p5-|-3-3-3-7p3-7p3-3-3-3-7p3-7p3-|
||------------------------------|-----------------------------|


  N.C.
|-------------------------------------------|
|-------------------------------------------|
|-------------------------------------------|
|--8--8--8-12p=8-12p=8--8--8--8-12p=8-12p=8-|
|-------------------------------------------|
|-------------------------------------------|
|
|-------------------------------------------|
|-------------------------------------------|
|-------------------------------------------|
|-------------------------------------------|
|-10-10-10-13p10-13p10-10-10-10-13p10-13p10-|
|-------------------------------------------|


                                   4x
|----------------------------------||
|---------------------------------o||
|----------------------------------||
|-7-7-7-10p7-10p7-7-7-7-10p7-10p7--||
|---------------------------------o||
|----------------------------------||
|
|                                  4x
|----------------------------------||
|---------------------------------o||
|----------------------------------||
|----------------------------------||
|-8-8-8-12p8-12p8-8-8-8-12p8-12p8-o||
|----------------------------------||


 Outro
  D5                  C5
|-------------------|-------------------|
|-------------------|-------------------|
|-7-7-7-7-7-7-7-7-7-|-7s9-9-9-9-9-9-9-9-|
|-------------------|-------------------|
|-5-5-5-5-5-5-5-5-5-|-5s7-7-7-7-7-7-7-7-|
|-------------------|-------------------|
|
|-------------------|-------------------|
|-------------------|-------------------|
|-7-7-7-7-7-7-7-7-7-|-5-5-5-5-5-5-5-5-5-|
|-7-7-7-7-7-7-7-7-7-|-5-5-5-5-5-5-5-5-5-|
|-5-5-5-5-5-5-5-5-5-|-3-3-3-3-3-3-3-3-3-|
|-------------------|-------------------|


  Bb5                         C5
|---------------------------|--------------------|
|---------------------------|--------------------|
|-9s10-10-10-10-10-10-10-10-|-10s9-9-9-9-9-9-9-9-|
|---------------------------|--------------------|
|-7s=8--8--8--8--8--8--8--8-|--8s7-7-7-7-7-7-7-7-|
|---------------------------|--------------------|
|
|---------------------------|--------------------|
|---------------------------|--------------------|
|-3--3--3--3--3--3--3--3--3-|--5-5-5-5-5-5-5-5-5-|
|-3--3--3--3--3--3--3--3--3-|--5-5-5-5-5-5-5-5-5-|
|-1--1--1--1--1--1--1--1--1-|--3-3-3-3-3-3-3-3-3-|
|---------------------------|--------------------|


  D5                  C5
|-------------------|-------------------|
|-------------------|-------------------|
|-7-7-7-7-7-7-7-7-7-|-7s9-9-9-9-9-9-9-9-|
|-------------------|-------------------|
|-5-5-5-5-5-5-5-5-5-|-5s7-7-7-7-7-7-7-7-|
|-------------------|-------------------|
|
|-------------------|-------------------|
|-------------------|-------------------|
|-7-7-7-7-7-7-7-7-7-|-5-5-5-5-5-5-5-5-5-|
|-7-7-7-7-7-7-7-7-7-|-5-5-5-5-5-5-5-5-5-|
|-5-5-5-5-5-5-5-5-5-|-3-3-3-3-3-3-3-3-3-|
|-------------------|-------------------|


  Bb5                          C5
|----------------------------|----------------------------|
|----------------------------|----------------------------|
|-14-14-14-14-14-14-14-14-14-|-12-12-12-12-12-12-12-12-12-|
|----------------------------|----------------------------|
|-12-12-12-12-12-12-12-12-12-|-10-10-10-10-10-10-10-10-10-|
|----------------------------|----------------------------|
|
|----------------------------|----------------------------|
|----------------------------|----------------------------|
|--3--3--3--3--3--3--3--3--3-|--5--5--5--5--5--5--5--5--5-|
|--3--3--3--3--3--3--3--3--3-|--5--5--5--5--5--5--5--5--5-|
|--1--1--1--1--1--1--1--1--1-|--3--3--3--3--3--3--3--3--3-|
|----------------------------|----------------------------|


    D5                           C5
||-----------------------------|----------------------------|
||o----------------------------|----------------------------|
||--11-11-11-11-11-11-11-11-11-|-11s12-12-12-12-12-12-12-12-|
||-----------------------------|----------------------------|
||o--9--9--9--9--9--9--9--9--9-|--9s10-10-10-10-10-10-10-10-|
||-----------------------------|----------------------------|
|
||-----------------------------|----------------------------|
||o----------------------------|----------------------------|
||---7--7--7--7--7--7--7--7--7-|--5--5--5--5--5--5--5--5--5-|
||---7--7--7--7--7--7--7--7--7-|--5--5--5--5--5--5--5--5--5-|
||o--5--5--5--5--5--5--5--5--5-|--3--3--3--3--3--3--3--3--3-|
||-----------------------------|----------------------------|


  Bb5                          C5
|----------------------------|------------------------------||
|----------------------------|-----------------------------o||
|-12s14-14-14-14-14-14-14-14-|-14s12-12-12-12-12-12-12-12---||
|----------------------------|------------------------------||
|-10s12-12-12-12-12-12-12-12-|-12s10-10-10-10-10-10-10-10--o||
|----------------------------|------------------------------||
|
|----------------------------|------------------------------||
|----------------------------|-----------------------------o||
|--3--3--3--3--3--3--3--3--3-|--5--5--5--5--5--5--5--5--5---||
|--3--3--3--3--3--3--3--3--3-|--5--5--5--5--5--5--5--5--5---||
|--1--1--1--1--1--1--1--1--1-|--3--3--3--3--3--3--3--3--3--o||
|----------------------------|------------------------------||


  D5
|---------|---------*|
|---------|---------*|
|-11------|-(11)----*|
|---------|---------*|
|--9------|--(9)----*|
|---------|---------*|
|
|---------|---------*|
|---------|---------*|
|--7------|--(7)----*|
|--7------|--(7)----*|
|--5------|--(5)----*|
|---------|---------*|


                               LIP GLOSS AND BLACK


Gtr I (C G C F A D) - 'Untitled'
Gtr II (C G C F A D) - 'Untitled'
Gtr III (C G C F A D) - 'Untitled'
Gtr IV (C G C F A D) - 'Untitled'
Gtr V (C G C F A D) - 'Untitled'
Gtr VI (C G C F A D) - 'Untitled'

   Intro
    Fast Rock Q=162
    N.C.
   4/4
    Gtr I
     T       T       T       T         T       T       T       T
||----------------------------------|-----------------------------------||
||o---------------------------------|----------------------------------o||
||--14-7h10-14-7h10-14-7h10-14-7h10-|-----------------------------------||
||----------------------------------|-14-7h10-14-7h10-14-7h10-14-7h10---||
||o---------------------------------|----------------------------------o||
||----------------------------------|-----------------------------------||


    N.C.
     T       T       T       T         T       T       T       T
||----------------------------------|----------------------------------||
||o---------------------------------|---------------------------------o||
||--14-7h10-14-7h10-14-7h10-14-7h10-|----------------------------------||
||----------------------------------|-14-7h10-14-7h10-14-7h10-14-7h10--||
||o---------------------------------|---------------------------------o||
||----------------------------------|----------------------------------||
|
|   Gtr II
|    T       T       T       T         T       T       T       T
||----------------------------------|----------------------------------||
||o---------------------------------|---------------------------------o||
||----------------------------------|----------------------------------||
||--12-5h=8-12-5h=8-12-5h=8-12-5h=8-|----------------------------------||
||o---------------------------------|-12-5h=8-12-5h=8-12-5h=8-12-5h=8-o||
||----------------------------------|----------------------------------||


   Verse
    D5                                Bb5
     T       T       T       T         T       T       T       T
||----------------------------------|---------------------------------|
||o---------------------------------|---------------------------------|
||--14-7h10-14-7h10-14-7h10-14-7h10-|---------------------------------|
||----------------------------------|-14-7h10-14-7h10-14-7h10-14-7h10-|
||o---------------------------------|---------------------------------|
||----------------------------------|---------------------------------|
|
||----------------------------------|---------------------------------|
||o---------------------------------|---------------------------------|
||----------------------------------|---------------------------------|
||---0-------0-------0-------0------|--8-------8-------8-------8------|
||o--0-------0-------0-------0------|--8-------8-------8-------8------|
||---0-------0-------0-------0------|--8-------8-------8-------8------|


  D5                      C5        Bb5                     F5
   T       T       T       T         T       T       T       T
                                                                     4x
|---------------------------------|----------------------------------||
|---------------------------------|---------------------------------o||
|-14-7h10-14-7h10-14-7h10-14-7h10-|----------------------------------||
|---------------------------------|-14-7h10-14-7h10-14-7h10-14-7h10--||
|---------------------------------|---------------------------------o||
|---------------------------------|----------------------------------||
|
|                                                                    4x
|---------------------------------|----------------------------------||
|---------------------------------|---------------------------------o||
|---------------------------------|----------------------------------||
|--0-------0-------0------10------|--8-------8-------8-------3-------||
|--0-------0-------0------10------|--8-------8-------8-------3------o||
|--0-------0-------0------10------|--8-------8-------8-------3-------||


   Chorus
    Slower Q=126
    $
    Bb5              C5
   6/8
||-----------------|----------------------|
||o----------------|----------------------|
||--7-7-7-7-7-9-10-|--9--9--9--9--9-10-12-|
||--x-x-x-x-x-x--x-|--x--x--x--x--x--x--x-|
||o-5-5-5-5-5-7--8-|--7--7--7--7--7--8-10-|
||-----------------|----------------------|
|
||-----------------|----------------------|
||o----------------|----------------------|
||-----------------|----------------------|
||--8-8-8-8-8-8--8-|-10-10-10-10-10-10-10-|
||o-8-8-8-8-8-8--8-|-10-10-10-10-10-10-10-|
||--8-8-8-8-8-8--8-|-10-10-10-10-10-10-10-|


  D5
|----------------------|---------------------------|
|----------------------|---------------------------|
|-10-10-10-10-10-10-10-|-14--14-14-14-12s14-14-14--|
|--x--x--x--x--x--x--x-|--x---x--x--x--x-----x--x--|
|--8--8--8--8--8--8--8-|-12--12-12-12-10s12-12-12--|
|----------------------|---------------------------|
|
|----------------------|---------------------------|
|----------------------|---------------------------|
|----------------------|---------------------------|
|--0-------------------|-(0)-----------------------|
|--0-------------------|-(0)-----------------------|
|--0-------------------|-(0)-----------------------|


                        1.
  Bb5                    C5
|----------------------|----------------------|
|----------------------|----------------------|
|-10-10-10-10-10-12-14-|-12-12-12-12-10--9--5-|
|--x--x--x--x--x--x--x-|--x--x--x--x--x--x--x-|
|--8--8--8--8--8-10-12-|-10-10-10-10--8--7--3-|
|----------------------|----------------------|
|
|----------------------|----------------------|
|----------------------|----------------------|
|----------------------|----------------------|
|--8--8--8--8--8--8--8-|-10-10-10-10-10-10-10-|
|--8--8--8--8--8--8--8-|-10-10-10-10-10-10-10-|
|--8--8--8--8--8--8--8-|-10-10-10-10-10-10-10-|


  D5
  PM----|           PM--------|           PM
|---------------------|----------------------||
|---------------------|---------------------o||
|---------10-(10)s7---|---------10-(10)s7----|| 
|----------x------x---|----------x------x----||
|-0-0-0-0--8--(8)s5-0-|-0-0-0-0--8--(8)s5-0-o||
|-0-0-0-0-----------0-|-0-0-0-0-----------0--||
|
| PM----|           PM--------|           PM
|---------------------|----------------------||
|---------------------|---------------------o||
|---------10-(10)s7---|---------10-(10)s7----||
|----------x------x---|----------x------x----||
|-0-0-0-0--8--(8)s5-0-|-0-0-0-0--8--(8)s5-0-o||
|-0-0-0-0-----------0-|-0-0-0-0-----------0--||


  2.                     Q=162
             To Coda
  C5                     A5                  C5  D5
                        4/4
|----------------------|----------|----------------||
|----------------------|----------|----------------||
|-12-12-12-12-10--9--7-|-6--------|-(6)-------6--7-||
|--x--x--x--x--x--x--x-|-x--------|-----------x--x-||
|-10-10-10-10--8--7--5-|-4--------|-(4)-------4--5-||
|----------------------|----------|----------------||
|
|----------------------|----------|----------------||
|----------------------|----------|----------------||
|----------------------|----------|----------------||
|-10-10-10-10-10-10-10-|-7--------|-(7)----7-10--0-||
|-10-10-10-10-10-10-10-|-7--------|-(7)----7-10--0-||
|-10-10-10-10-10-10-10-|-7--------|-(7)----7-10--0-||


 Verse
              Bb5             F5              C5            C#5     D5
  Gtr II                                      Gtrs I, II
|---------------|---------------|----------------|--------------------|
|---------------|---------------|----------------|--------------------|
|---------------|---------------|----------------|--------------------|
|-(0)--0---0--8-|-(8)--8---8--3-|-(3)--3---3--10-|-(10)-10--11--11--0-|
|-(0)--0---0--8-|-(8)--8---8--3-|-(3)--3---3--10-|-(10)-10--11--11--0-|
|-(0)--0---0--8-|-(8)--8---8--3-|-(3)--3---3--10-|-(10)-10--11--11--0-|


              Bb5             F5                         C/E   D5
|---------------|---------------|---------------|----------------|
|---------------|---------------|---------------|----------------|
|---------------|---------------|---------------|----------------|
|-(0)--0---0--8-|-(8)--8---8--3-|-(3)--3---3--3-|-(3)-3--2--2--0-|
|-(0)--0---0--8-|-(8)--8---8--3-|-(3)--3---3--3-|-(3)-3--3--3--0-|
|-(0)--0---0--8-|-(8)--8---8--3-|-(3)--3---3--3-|-(3)-3--2--2--0-|


              Bb5             F5              C5            C#5     D5
|---------------|---------------|----------------|--------------------|
|---------------|---------------|----------------|--------------------|
|---------------|---------------|----------------|--------------------|
|-(0)--0---0--8-|-(8)--8---8--3-|-(3)--3---3--10-|-(10)-10--11--11--0-|
|-(0)--0---0--8-|-(8)--8---8--3-|-(3)--3---3--10-|-(10)-10--11--11--0-|
|-(0)--0---0--8-|-(8)--8---8--3-|-(3)--3---3--10-|-(10)-10--11--11--0-|


              Bb5
|---------------|--------------||
|---------------|--------------||
|---------------|--------------||
|-(0)--0---0--8-|-(8)--8---8---||
|-(0)--0---0--8-|-(8)--8---8---||
|-(0)--0---0--8-|-(8)--8---8---||


                             1.,2.,3.,4.,5.,6.,7.        8.
    D5
    PM----------------------------------------------|
                                                       8x
||--------------------------|--------------------------||-----|
||o-------------------------|-------------------------o||-----|
||--------------------------|--------------------------||-----|
||--------------------------|--------------------------||-----|
||o-0-0-0-0-0-0-0-0-0-0-0-0-|-0-0-0-0-0-0-0-0-0-0-0-0-o||-----|
||--0-0-0-0-0-0-0-0-0-0-0-0-|-0-0-0-0-0-0-0-0-0-0-0-0--||-----|


 Bridge
  Slower Q=126
  D5
 6/8
  Gtr II
|-------------------|---------------------|
|-------------------|---------------------|
|-------------------|---------------------|
|-7-3--3-3-7-3--3-0-|---------------------|
|-------------------|--7--3--3-3-7-3--3-0-|
|-------------------|---------------------|
|
| Gtr I
|-------------------|---------------------|
|-------------------|---------------------|
|-------------------|---------------------|
|-0-----------------|-(0)-----------------|
|-0-----------------|-(0)-----------------|
|-0-----------------|-(0)-----------------|


                                   (F)(Em(C)
|---------------------|---------------------|
|---------------------|---------------------|
|---------------------|------------10--9-5--|
|--7--3--3-3-7-3--3-0-|-------------x--x-x--|
|---------------------|--7--3--3-0--8--7-3--|
|---------------------|---------------------|
|
|---------------------|---------------------|
|---------------------|---------------------|
|---------------------|------------14-12-9--|
|-(0)-----------------|-(0)---------x--x-x--|
|-(0)-----------------|-(0)--------12-10-7--|
|-(0)-----------------|-(0)-----------------|


   Interlude
    D5
||--------------------|-------------------|
||o-------------------|-------------------|
||--------------------|-------------------|
||--7-3--3-3-7-3--3-0-|-------------------|
||o-------------------|-7-3--3-3-7-3--3-0-|
||--------------------|-------------------|
|
||--------------------|-------------------|
||o-------------------|-------------------|
||--------------------|-------------------|
||--0-----------------|-8-----------------|
||o-0-----------------|-8-----------------|
||--0-----------------|-8-----------------|


                           D.S. al Coda
                               (F)(Em(C)
                                          4x
|-------------------|---------------------||
|-------------------|--------------------o||
|-------------------|----------10--9-5----||
|-7-3--3-3-7-3--3-0-|-----------x--x-x----||
|-------------------|-7-3--3-0--8--7-3---o||
|-------------------|---------------------||
|
|                                         4x
|-------------------|---------------------||
|-------------------|--------------------o||
|-------------------|----------14-12-9----||
|-0-----------------|-8---------x--x-x----||
|-0-----------------|-8--------12-10-7---o||
|-0-----------------|-8-------------------||


 Breakdown
  &
  D5
  Gtr II
|--------------|----------------|----------------|----------------|
|--------------|----------------|----------------|----------------|
|--------------|----------------|----------------|----------------|
|-0------------|-(0)------------|-(0)------------|-(0)------------|
|-0------------|-(0)------------|-(0)------------|-(0)------------|
|-0------------|-(0)------------|-(0)------------|-(0)------------|
|
| Gtr I
| PM------------------------------------------------------------|
|--------------|----------------|----------------|----------------|
|--------------|----------------|----------------|----------------|
|--------------|----------------|----------------|----------------|
|--------------|----------------|----------------|----------------|
|-0-0-0-0--0-0-|--0--0-0-0--0-0-|--0--0-0-0--0-0-|--0--0-0-0--0-0-|
|-0-0-0-0--0-0-|--0--0-0-0--0-0-|--0--0-0-0--0-0-|--0--0-0-0--0-0-|


  D5                                                     (F)(Em(C)
|----------------|--------------|--------------|-----------------||
|----------------|--------------|--------------|-----------------||
|----------------|--------------|--------------|---------14-12-9-||
|-0--------------|--------------|--------------|----------x--x-x-||
|-0--------------|--------------|--------------|---------12-10-7-||
|-0--------------|--------------|--------------|-----------------||
|
| PM---------------------------------------------------|
|----------------|--------------|--------------|-----------------||
|----------------|--------------|--------------|-----------------||
|----------------|--------------|--------------|---------10--9-5-||
|----------------|--------------|--------------|----------x--x-x-||
|-0-0--0-0---0-0-|-0-0-0-0--0-0-|-0-0-0-0--0-0-|-0-0-0-0--8--7-3-||
|-0-0--0-0---0-0-|-0-0-0-0--0-0-|-0-0-0-0--0-0-|-0-0-0-0---------||


   Breakdown Verse
    D5
    PM----|           PM--------|           PM-
||----------------------|---------------------|
||o---------------------|---------------------|
||----------10-(10)s7---|---------10-(10)s7---|
||-----------x------x---|----------x------x---|
||o-0-0-0-0--8--(8)s5-0-|-0-0-0-0--8--(8)s5-0-|
||--0-0-0-0-----------0-|-0-0-0-0-----------0-|
|
|   PM-----------------------------------------
||----------------------|---------------------|
||o---------------------|---------------------|
||----------------------|---------------------|
||--0-0-0-0--0------0-0-|-0-0-0-0--0------0-0-|
||o-0-0-0-0--0------0-0-|-0-0-0-0--0------0-0-|
||--0-0-0-0--0------0-0-|-0-0-0-0--0------0-0-|


                       1.,2.,3.
                                (F)(Em(C)
 -------|           PM--------|
                                         4x
|---------------------|------------------||
|---------------------|-----------------o||
|---------10-(10)s7---|---------14-12-9--||
|----------x------x---|----------x--x-x--||
|-0-0-0-0--8--(8)s5-0-|-0-0-0-0-12-10-7-o||
|-0-0-0-0-----------0-|-0-0-0-0----------||
|
|-----------------------------|
|                                        4x
|---------------------|------------------||
|---------------------|-----------------o||
|---------------------|---------10--9-5--||
|-0-0-0-0--0------0-0-|-0-0-0-0--x--x-x--||
|-0-0-0-0--0------0-0-|-0-0-0-0--8--7-3-o||
|-0-0-0-0--0------0-0-|-0-0-0-0----------||


               Interlude
  4.    H.=H    Slower Q=74
  D5            (Dm)
               4/4
  Gtrs I, II
                 >
|------------||---------------------------|------------------------|
|------------||---------------------------|------------------------|
|------------||---------------------------|------------------------|
|-0-0-0-0-x--||--0------------------------|------------------------|
|-0-0-0-0-x--||--0------------------------|------------------------|
|-0-0-0-0-x--||--0------------------------|------------------------|
|
| Gtr IV
|------------||---------------------------|------------------------|
|------------||-----------10-11--11-10----|-10-------------11------|
|------------||--------10----10--------12-|------12-10-12----------|
|------------||-----12--------8-----------|-15---------10--11--10--|
|------------||-12------------8-----------|-15---------10--11-(11)-|
|------------||-12------------8-----------|-15---------10--11-(11)-|


  (Dm)          (Bb)       (F)                    (C)           (C#)
  Gtr IV
|-----10-----------------|----------------------------------------------------|
|-10-----10-11--11-10----|-------------------------10------------10-----------|
|---------------------12-|----------------------------------------------------|
|-12---------8-----------|-15----------------------10------------11-----------|
|-12---------8-----------|-15----------------------10------------11-----------|
|-12---------8-----------|-15----------------------10------------11-----------|
|
| Gtr V
|                           <  <
|------------------------|-------------0--------------------------------------|
|------------------------|----------------------------------------------------|
|------------------------|-------10---------10------------10------------10----|
|------------------------|----12----12---12----12-(12)-12----12-(12)-12----12-|
|------------------------|----------------------------------------------------|
|------------------------|----------------------------------------------------|


  D5
|-------------------------------------------------------|
|-------------------------------------------------------|
|--14-----------------------(14)------------------------|
|--12-----------------------(12)------------------------|
|--12-----------------------(12)------------------------|
|--12-----------------------(12)------------------------|
|
|----------------0--------------------------------------|
|-------------------------------------------------------|
|---------10----------10------------10------------10----|
|-(12)-12----12----12----12-(12)-12----12-(12)-12----12-|
|-------------------------------------------------------|
|-------------------------------------------------------|
|
| Gtr VI
|----------------------------10--------10---------10----|
|--13--------13-------13--------------------------------|
|------14-------14-------14------14--------14--------14-|
|---------15-------15---------------15---------15-------|
|-------------------------------------------------------|
|-------------------------------------------------------|


  C6
|-------------------------------------------------------|
|-------------------------------------------------------|
|--14-----------------------(14)------------------------|
|--10-----------------------(10)------------------------|
|--10-----------------------(10)------------------------|
|--10-----------------------(10)------------------------|
|
|----------------0--------------------------------------|
|-------------------------------------------------------|
|---------10----------10------------10------------10----|
|-(12)-12----12----12----12-(12)-12----12-(12)-12----12-|
|-------------------------------------------------------|
|-------------------------------------------------------|
|
|----------------------------12--------12---------12----|
|--13--------13-------13--------------------------------|
|------14-------14-------14------14--------14--------14-|
|---------15-------15---------------15---------15-------|
|-------------------------------------------------------|
|-------------------------------------------------------|


  (Bb7)
|-------------------------------------------------------|
|-------------------------------------------------------|
|--14-----------------------(14)------------------------|
|---8------------------------(8)------------------------|
|---8------------------------(8)------------------------|
|---8------------------------(8)------------------------|
|
|----------------0--------------------------------------|
|-------------------------------------------------------|
|---------10----------10------------10------------10----|
|-(12)-12----12----12----12-(12)-12----12-(12)-12----12-|
|-------------------------------------------------------|
|-------------------------------------------------------|
|
|----------------------------10--------10---------10----|
|--13--------13-------13--------------------------------|
|------14-------14-------14------14--------14--------14-|
|---------15-------15---------------15---------15-------|
|-------------------------------------------------------|
|-------------------------------------------------------|


  C6                        C6            (C#)
|-------------------------------------------------------||
|-------------------------------------------------------||
|--14------------------------14------------14-----------||
|--10------------------------10------------11-----------||
|--10------------------------10------------11-----------||
|--10------------------------10------------11-----------||
|
|----------------0--------------------------------------||
|-------------------------------------------------------||
|---------10----------10------------10------------10----||
|-(12)-12----12----12----12-(12)-12----12-(12)-12----12-||
|-------------------------------------------------------||
|-------------------------------------------------------||
|
|----------------------------12--------12---------12----||
|--13--------13-------13--------------------------------||
|------14-------14-------14------14--------14--------14-||
|---------15-------15---------------15---------15-------||
|-------------------------------------------------------||
|-------------------------------------------------------||


 Guitar Solo
  Slightly Faster Q=76
  D5                                Bb5
  Gtr III
                                     ~~
|--------------------------------------------------------------|
|-----------------10----13----11----10-------10h11---10--------|
|---------------x-----------------------------------------10---|
|-------------x------------------------------------------------|
|--------------------------------------------------------------|
|--------------------------------------------------------------|
|
| Gtrs I, II
|--------------------------------------------------------------|
|--------------------------------------------------------------|
|--------------------------------------------------------------|
|-12-12-12-12-----12-12----12----12--8-8-8-8-----8-8----8----8-|
|-12-12-12-12-----12-12----12----12--8-8-8-8-----8-8----8----8-|
|-12-12-12-12-----12-12----12----12--8-8-8-8-----8-8----8----8-|
|
| Gtr IV
|--------------------------------------------------------------|
|--------------------------------------------------------------|
|-14--------------------------------14-------------------------|
|-12---------------------------------8-------------------------|
|-12---------------------------------8-------------------------|
|-12---------------------------------8-------------------------|


  C5                                  C#5
   ~~
|--------------------------------------------------|
|--------------------------------------------------|
|--------------------------------------------------|
|-10-----------------------------------------------|
|--------------------------------------------------|
|-------------------------10-10-10-10-10h11-11-11--|
|
|--------------------------------------------------|
|--------------------------------------------------|
|--------------------------------------------------|
|-10-10-10-10-10-10-10-10-10-10-10-10-11-11-11-11--|
|-10-10-10-10-10-10-10-10-10-10-10-10-11-11-11-11--|
|-10-10-10-10-10-10-10-10-10-10-10-10-11-11-11-11--|
|
|--------------------------------------------------|
|--------------------------------------------------|
|-14----------------------14----------14-----------|
|-10----------------------10----------11-----------|
|-10----------------------10----------11-----------|
|-10----------------------10----------11-----------|


  D5                      Bb5
|-----------------------------------------------|
|-------------13----------11---------10---------|
|-12-10--9-10----10--9-10----10-9-10----10-9-10-|
|-----------------------------------------------|
|-----------------------------------------------|
|-----------------------------------------------|
|
|-----------------------------------------------|
|-----------------------------------------------|
|-----------------------------------------------|
|-12-12-12-12-12-12-12-12--8--8-8--8--8--8-8--8-|
|-12-12-12-12-12-12-12-12--8--8-8--8--8--8-8--8-|
|-12-12-12-12-12-12-12-12--8--8-8--8--8--8-8--8-|
|
|-----------------------------------------------|
|-----------------------------------------------|
|-14----------------------14--------------------|
|-12-----------------------8--------------------|
|-12-----------------------8--------------------|
|-12-----------------------8--------------------|


  C5                                   C#5
|---------------------------------------------------|
|--------------13-------11-------10-----------------|
|-/12-10--9-10----10--9----10--9----10--9-10--9-10/-|
|---------------------------------------------------|
|---------------------------------------------------|
|---------------------------------------------------|
|
|---------------------------------------------------|
|---------------------------------------------------|
|---------------------------------------------------|
|--10-10-10-10-10-10-10-10-10-10-10-10-11-11-11-11--|
|--10-10-10-10-10-10-10-10-10-10-10-10-11-11-11-11--|
|--10-10-10-10-10-10-10-10-10-10-10-10-11-11-11-11--|
|
|---------------------------------------------------|
|---------------------------------------------------|
|--14----------------------14----------14-----------|
|--10----------------------10----------11-----------|
|--10----------------------10----------11-----------|
|--10----------------------10----------11-----------|


  D5                      Bb5
|-------------20----------18----------17----------|
|-20-18-17-18----18-17-18----18-17-18----18-17-18-|
|-------------------------------------------------|
|-------------------------------------------------|
|-------------------------------------------------|
|-------------------------------------------------|
|
|-------------------------------------------------|
|-------------------------------------------------|
|-------------------------------------------------|
|-12-12-12-12-12-12-12-12--8--8--8--8--8--8--8--8-|
|-12-12-12-12-12-12-12-12--8--8--8--8--8--8--8--8-|
|-12-12-12-12-12-12-12-12--8--8--8--8--8--8--8--8-|
|
|-------------------------------------------------|
|-------------------------------------------------|
|-14----------------------14----------------------|
|-12-----------------------8----------------------|
|-12-----------------------8----------------------|
|-12-----------------------8----------------------|


  C5                                   C#5
|--------------20-------18-------17----------------|
|-/20s18-17-18----18-17----18-17----18-17-18-17-18-|
|--------------------------------------------------|
|--------------------------------------------------|
|--------------------------------------------------|
|--------------------------------------------------|
|
|--------------------------------------------------|
|--------------------------------------------------|
|--------------------------------------------------|
|--10-10-10-10-10-10-10-10-10-10-10-10-11-11-11-11-|
|--10-10-10-10-10-10-10-10-10-10-10-10-11-11-11-11-|
|--10-10-10-10-10-10-10-10-10-10-10-10-11-11-11-11-|
|
|--------------------------------------------------|
|--------------------------------------------------| 
|--14----------------------14----------14----------|
|--10----------------------10----------11----------|
|--10----------------------10----------11----------|
|--10----------------------10----------11----------|


  D5                            Bb5
|-------------------------------18----------17----------|
|-20-18-17h18p17-------18-17-18----18-17-18----18-17-18-|
|----------------19p17----------------------------------|
|-------------------------------------------------------|
|-------------------------------------------------------|
|-------------------------------------------------------|
|
|-------------------------------------------------------|
|-------------------------------------------------------|
|-------------------------------------------------------|
|-12-12-12----12----12-12-12-12--8--8--8--8--8--8--8--8-|
|-12-12-12----12----12-12-12-12--8--8--8--8--8--8--8--8-|
|-12-12-12----12----12-12-12-12--8--8--8--8--8--8--8--8-|
|
|-------------------------------------------------------|
|-------------------------------------------------------|
|-14----------------------------14----------------------|
|-12-----------------------------8----------------------|
|-12-----------------------------8----------------------|
|-12-----------------------------8----------------------|


  C5                                   C#5
|--------------20-------18-------17--------------------||
|-/20-18-17-18----18-17----18-17----18-17-(17)-(17)-18-||
|------------------------------------------------------||
|------------------------------------------------------||
|------------------------------------------------------||
|------------------------------------------------------||
|
|------------------------------------------------------||
|------------------------------------------------------||
|------------------------------------------------------||
|--10-10-10-10-10-10-10-10-10-10-10-10-11--11---11--11-||
|--10-10-10-10-10-10-10-10-10-10-10-10-11--11---11--11-||
|--10-10-10-10-10-10-10-10-10-10-10-10-11--11---11--11-||
|
|------------------------------------------------------||
|------------------------------------------------------||
|--14----------------------14----------14--------------||
|--10----------------------10----------11--------------||
|--10----------------------10----------11--------------||
|--10----------------------10----------11--------------||


 Outro
  Slightly Slower Q=74
  (Dm)         (Bb)             (F)          (C) (C#)
  Gtr IV
|-----------------------------|--------------------------|
|-----------10--11---11-10----|--10--------------11------|
|--------10-----10---------12-|--------12-10-12----------|
|-----12---------8------------|--15----------10--11--10--|
|-12-------------8------------|--15----------10--11-(11)-|
|-12-------------8------------|--15----------10--11-(11)-|
|
| Gtr III
|                >
|  ~~~~~~~~~~~~~~~~~
|-----------------------------|--------------------------|
|-17-----------(17)-----------|--------------------------|
|-----------------------------|--------------------------|
|-----------------------------|--------------------------|
|-----------------------------|--------------------------|
|-----------------------------|--------------------------|
|
| Gtrs I, II
|                                 >
|-----------------------------|--------------------------|
|-----------------------------|--------------------------|
|-----------------------------|--------------------------|
|-12--------------------------|-(12)---------------------|
|-12--------------------------|-(12)---------------------|
|-12--------------------------|-(12)---------------------|


  (Dm)      (Bb)           (F)   (C) (C#)
|-----10-----------------|---------------|
|-10-----10-11--11-10----|-10----10--10--|
|---------------------12-|---------------|
|-12---------8-----------|-15----10--11--|
|-12---------8-----------|-15----10--11--|
|-12---------8-----------|-15----10--11--|


  (Dm)            (Bb)           (F)        (C) (C#)
|------------------------------|------------------------|
|--------------10-11--11-10----|-10-------------11------|
|-----------10----10--------12-|------12-10-12----------|
|-12-----12--------8-----------|-15---------10--11--10--|
|-12--12-----------8-----------|-15---------10--11-(11)-|
|-12---------------8-----------|-15---------10--11-(11)-|


  (Dm)         (Bb)           (F)        (C) (C#)
|--------10-----------------|------------------------|
|-----10----10-11--11-10----|-10-------------11------|
|--------------10--------12-|------12-10-12----------|
|---------------8-----------|-15---------10--11--10--|
|-12------------8-----------|-15---------10--11-(11)-|
|-12------------8-----------|-15---------10--11-(11)-|


  (Dm)            (Bb)           (F)               (C)  (C#)
|------------------------------|-------------------------|
|--------------10-11--11-10----|-10-------------11-------|
|-----------10----10--------12-|------12-10-12-----------|
|-12-----12--------8-----------|-15---------10--11--10---|
|-12--12-----------8-----------|-15---------10--11-(11)--|
|-12---------------8-----------|-15---------10--11-(11)--|


                                        H.=H
  (Dm)        (Bb)           (F)        (C)
|-------10-----------------|------------------*|
|-10-------10-11--11-10----|-10---------------*|
|-----------------------12-|------12-10-12----*|
|-12-12--------8-----------|-15---------10----*|
|-12-----------8-----------|-15---------10----*|
|-12-----------8-----------|-15---------10----*|



********************************************************************************
Comments